  0
SECTION
  2
HEADER
  9
$ACADVER
  1
AC1009
  9
$DWGCODEPAGE
  3
ansi_932
  9
$INSBASE
 10
0.0
 20
0.0
 30
0.0
  9
$EXTMIN
 10
-1350.0
 20
-2024.509260898437
 30
0.0
  9
$EXTMAX
 10
1350.0
 20
1999.44541
 30
0.0
  9
$LIMMIN
 10
0.0
 20
0.0
  9
$LIMMAX
 10
0.0
 20
0.0
  9
$ORTHOMODE
 70
     0
  9
$REGENMODE
 70
     1
  9
$FILLMODE
 70
     1
  9
$QTEXTMODE
 70
     0
  9
$MIRRTEXT
 70
     1
  9
$DRAGMODE
 70
     2
  9
$LTSCALE
 40
76.19999999999999
  9
$OSMODE
 70
    37
  9
$ATTMODE
 70
     1
  9
$TEXTSIZE
 40
0.0
  9
$TRACEWID
 40
1.0
  9
$TEXTSTYLE
  7
STANDARD
  9
$CLAYER
  8
DATA
  9
$CELTYPE
  6
BYLAYER
  9
$CECOLOR
 62
   256
  9
$DIMSCALE
 40
1.0
  9
$DIMASZ
 40
0.18
  9
$DIMEXO
 40
0.0625
  9
$DIMDLI
 40
0.38
  9
$DIMRND
 40
0.0
  9
$DIMDLE
 40
0.0
  9
$DIMEXE
 40
0.18
  9
$DIMTP
 40
0.0
  9
$DIMTM
 40
0.0
  9
$DIMTXT
 40
0.18
  9
$DIMCEN
 40
0.09
  9
$DIMTSZ
 40
0.0
  9
$DIMTOL
 70
     0
  9
$DIMLIM
 70
     0
  9
$DIMTIH
 70
     1
  9
$DIMTOH
 70
     1
  9
$DIMSE1
 70
     0
  9
$DIMSE2
 70
     0
  9
$DIMTAD
 70
     0
  9
$DIMZIN
 70
     0
  9
$DIMBLK
  1

  9
$DIMASO
 70
     1
  9
$DIMSHO
 70
     1
  9
$DIMPOST
  1

  9
$DIMAPOST
  1

  9
$DIMALT
 70
     0
  9
$DIMALTD
 70
     2
  9
$DIMALTF
 40
25.4
  9
$DIMLFAC
 40
1.0
  9
$DIMTOFL
 70
     0
  9
$DIMTVP
 40
0.0
  9
$DIMTIX
 70
     0
  9
$DIMSOXD
 70
     0
  9
$DIMSAH
 70
     0
  9
$DIMBLK1
  1

  9
$DIMBLK2
  1

  9
$DIMSTYLE
  2
STANDARD
  9
$DIMCLRD
 70
     0
  9
$DIMCLRE
 70
     0
  9
$DIMCLRT
 70
     0
  9
$DIMTFAC
 40
1.0
  9
$DIMGAP
 40
0.09
  9
$LUNITS
 70
     2
  9
$LUPREC
 70
     2
  9
$SKETCHINC
 40
0.1
  9
$FILLETRAD
 40
0.0
  9
$AUNITS
 70
     0
  9
$AUPREC
 70
     0
  9
$MENU
  1
acad
  9
$ELEVATION
 40
0.0
  9
$PELEVATION
 40
0.0
  9
$THICKNESS
 40
0.0
  9
$LIMCHECK
 70
     0
  9
$CHAMFERA
 40
0.0
  9
$CHAMFERB
 40
0.0
  9
$SKPOLY
 70
     0
  9
$TDCREATE
 40
2459395.688489629
  9
$TDUPDATE
 40
2459395.689131354
  9
$TDINDWG
 40
2459395.314132153
  9
$TDUSRTIMER
 40
0.0006425347
  9
$USRTIMER
 70
     1
  9
$ANGBASE
 50
0.0
  9
$ANGDIR
 70
     0
  9
$PDMODE
 70
     1
  9
$PDSIZE
 40
-2.0
  9
$PLINEWID
 40
0.0
  9
$COORDS
 70
     1
  9
$SPLFRAME
 70
     0
  9
$SPLINETYPE
 70
     6
  9
$SPLINESEGS
 70
     8
  9
$ATTDIA
 70
     1
  9
$ATTREQ
 70
     1
  9
$HANDLING
 70
     1
  9
$HANDSEED
  5
49F
  9
$SURFTAB1
 70
     6
  9
$SURFTAB2
 70
     6
  9
$SURFTYPE
 70
     6
  9
$SURFU
 70
     6
  9
$SURFV
 70
     6
  9
$UCSNAME
  2

  9
$UCSORG
 10
0.0
 20
0.0
 30
0.0
  9
$UCSXDIR
 10
1.0
 20
0.0
 30
0.0
  9
$UCSYDIR
 10
0.0
 20
1.0
 30
0.0
  9
$PUCSNAME
  2

  9
$PUCSORG
 10
0.0
 20
0.0
 30
0.0
  9
$PUCSXDIR
 10
1.0
 20
0.0
 30
0.0
  9
$PUCSYDIR
 10
0.0
 20
1.0
 30
0.0
  9
$USERI1
 70
     0
  9
$USERI2
 70
     0
  9
$USERI3
 70
     0
  9
$USERI4
 70
     0
  9
$USERI5
 70
     0
  9
$USERR1
 40
0.0
  9
$USERR2
 40
0.0
  9
$USERR3
 40
0.0
  9
$USERR4
 40
0.0
  9
$USERR5
 40
0.0
  9
$WORLDVIEW
 70
     1
  9
$SHADEDGE
 70
     3
  9
$SHADEDIF
 70
    70
  9
$TILEMODE
 70
     1
  9
$MAXACTVP
 70
    64
  9
$PLIMCHECK
 70
     0
  9
$PEXTMIN
 10
1.000000000000000E+20
 20
1.000000000000000E+20
 30
1.000000000000000E+20
  9
$PEXTMAX
 10
-1.000000000000000E+20
 20
-1.000000000000000E+20
 30
-1.000000000000000E+20
  9
$PLIMMIN
 10
0.0
 20
0.0
  9
$PLIMMAX
 10
12.0
 20
9.0
  9
$UNITMODE
 70
     0
  9
$VISRETAIN
 70
     0
  9
$PLINEGEN
 70
     1
  9
$PSLTSCALE
 70
     0
  0
ENDSEC
  0
SECTION
  2
TABLES
  0
TABLE
  2
VPORT
 70
     1
  0
VPORT
  2
*ACTIVE
 70
     0
 10
0.0
 20
0.0
 11
1.0
 21
1.0
 12
0.0
 22
-3.531814999999597
 13
0.0
 23
0.0
 14
1.0
 24
1.0
 15
0.0
 25
0.0
 16
0.0
 26
0.0
 36
1.0
 17
0.0
 27
0.0
 37
0.0
 40
4005.954450000001
 41
2.794721407624633
 42
50.0
 43
0.0
 44
0.0
 50
0.0
 51
0.0
 71
     0
 72
  2000
 73
     1
 74
     1
 75
     0
 76
     0
 77
     0
 78
     0
  0
ENDTAB
  0
TABLE
  2
LTYPE
 70
    11
  0
LTYPE
  2
CONTINUOUS
 70
     0
  3
Solid line
 72
    65
 73
     0
 40
0.0
  0
ENDTAB
  0
TABLE
  2
LAYER
 70
     5
  0
LAYER
  2
0
 70
     0
 62
     7
  6
CONTINUOUS
  0
LAYER
  2
HIBINO-BASE
 70
     0
 62
     7
  6
CONTINUOUS
  0
LAYER
  2
SPEC
 70
     0
 62
     7
  6
CONTINUOUS
  0
LAYER
  2
DIMNSIONS
 70
     0
 62
     7
  6
CONTINUOUS
  0
LAYER
  2
DATA
 70
     0
 62
     7
  6
CONTINUOUS
  0
ENDTAB
  0
TABLE
  2
STYLE
 70
     2
  0
STYLE
  2
STANDARD
 70
     0
 40
0.0
 41
1.0
 50
0.0
 71
     0
 42
0.0
  3
txt
  4
BIGFONT.SHX
  0
ENDTAB
  0
TABLE
  2
VIEW
 70
     0
  0
ENDTAB
  0
TABLE
  2
UCS
 70
     0
  0
ENDTAB
  0
TABLE
  2
APPID
 70
     3
  0
APPID
  2
ACAD
 70
     0
  0
APPID
  2
ACAD_MLEADERVER
 70
     0
  0
APPID
  2
ACADANNOPO
 70
     0
  0
ENDTAB
  0
TABLE
  2
DIMSTYLE
 70
     1
  0
DIMSTYLE
  2
STANDARD
 70
     0
  3

  4

  5

  6

  7

 40
1.0
 41
0.18
 42
0.0625
 43
0.38
 44
0.18
 45
0.0
 46
0.0
 47
0.0
 48
0.0
140
0.18
141
0.09
142
0.0
143
25.4
144
1.0
145
0.0
146
1.0
147
0.09
 71
     0
 72
     0
 73
     1
 74
     1
 75
     0
 76
     0
 77
     0
 78
     0
170
     0
171
     2
172
     0
173
     0
174
     0
175
     0
176
     0
177
     0
178
     0
  0
ENDTAB
  0
ENDSEC
  0
SECTION
  2
BLOCKS
  0
BLOCK
  8
DATA
  2
$MODEL_SPACE
 70
     0
 10
0.0
 20
0.0
 30
0.0
  3
$MODEL_SPACE
  1

  0
ENDBLK
  5
3D4
  8
DATA
  0
BLOCK
 67
     1
  8
DATA
  2
$PAPER_SPACE
 70
     0
 10
0.0
 20
0.0
 30
0.0
  3
$PAPER_SPACE
  1

  0
ENDBLK
  5
3D2
 67
     1
  8
DATA
  0
ENDSEC
  0
SECTION
  2
ENTITIES
  0
LINE
  5
2C
  8
HIBINO-BASE
  6
CONTINUOUS
 62
     7
 10
-1350.0
 20
1999.44541
 30
0.0
 11
1350.0
 21
1999.44541
 31
0.0
  0
LINE
  5
2D
  8
HIBINO-BASE
  6
CONTINUOUS
 62
     7
 10
1350.0
 20
-1900.55459
 30
0.0
 11
-1350.0
 21
-1900.55459
 31
0.0
  0
LINE
  5
2E
  8
HIBINO-BASE
  6
CONTINUOUS
 62
     7
 10
-1350.0
 20
-1900.55459
 30
0.0
 11
-1350.0
 21
1999.44541
 31
0.0
  0
LINE
  5
2F
  8
HIBINO-BASE
  6
CONTINUOUS
 62
     7
 10
1350.0
 20
1999.44541
 30
0.0
 11
1350.0
 21
-1900.55459
 31
0.0
  0
LINE
  5
30
  8
HIBINO-BASE
  6
CONTINUOUS
 62
     7
 10
0.0000000000002132
 20
-1563.05459
 30
0.0
 11
1350.0
 21
-1563.05459
 31
0.0
  0
LINE
  5
31
  8
HIBINO-BASE
  6
CONTINUOUS
 62
     7
 10
0.0000000000002132
 20
-1900.55459
 30
0.0
 11
0.0000000000002132
 21
-1563.05459
 31
0.0
  0
TEXT
  5
32
  8
HIBINO-BASE
 62
     7
 10
13.5000000000003
 20
-1600.68499
 30
0.0
 40
24.4326171875
  1
NOTE
 41
0.7
 11
13.5000000000003
 21
-1576.2523728125
 31
0.0
 73
     3
  0
LINE
  5
33
  8
HIBINO-BASE
  6
CONTINUOUS
 62
     7
 10
525.0000000000002
 20
-1900.55459
 30
0.0
 11
525.0000000000002
 21
-1563.05459
 31
0.0
  0
TEXT
  5
34
  8
HIBINO-BASE
 62
     7
 10
538.4999999999998
 20
-1600.68499
 30
0.0
 40
24.4326171875
  1
TITLE
 41
0.7
 11
538.4999999999998
 21
-1576.2523728125
 31
0.0
 73
     3
  0
LINE
  5
35
  8
HIBINO-BASE
  6
CONTINUOUS
 62
     7
 10
0.0000000000002132
 20
-1750.55459
 30
0.0
 11
1350.0
 21
-1750.55459
 31
0.0
  0
TEXT
  5
36
  8
HIBINO-BASE
 62
     7
 10
725.9999999999998
 20
-1787.34019
 30
0.0
 40
24.4326171875
  1
DRAWN
 41
0.7
 11
725.9999999999998
 21
-1762.9075728125
 31
0.0
 73
     3
  0
TEXT
  5
37
  8
HIBINO-BASE
 62
     7
 10
350.9999999999999
 20
-1787.34019
 30
0.0
 40
24.4326171875
  1
DATE
 41
0.7
 11
350.9999999999999
 21
-1762.9075728125
 31
0.0
 73
     3
  0
TEXT
  5
38
  8
HIBINO-BASE
 62
     7
 10
200.9999999999999
 20
-1787.34019
 30
0.0
 40
24.4326171875
  1
SCALE
 41
0.7
 11
200.9999999999999
 21
-1762.9075728125
 31
0.0
 73
     3
  0
TEXT
  5
39
  8
HIBINO-BASE
 62
     7
 10
538.4999999999998
 20
-1787.34019
 30
0.0
 40
24.4326171875
  1
DESIGN
 41
0.7
 11
538.4999999999998
 21
-1762.9075728125
 31
0.0
 73
     3
  0
TEXT
  5
3A
  8
HIBINO-BASE
 62
     7
 10
1101.0
 20
-1787.34019
 30
0.0
 40
24.4326171875
  1
DRAWING NO.
 41
0.7
 11
1101.0
 21
-1762.9075728125
 31
0.0
 73
     3
  0
TEXT
  5
3B
  8
HIBINO-BASE
 62
     7
 10
913.4999999999998
 20
-1787.34019
 30
0.0
 40
24.4326171875
  1
CHECK
 41
0.7
 11
913.4999999999998
 21
-1762.9075728125
 31
0.0
 73
     3
  0
LINE
  5
3C
  8
HIBINO-BASE
  6
CONTINUOUS
 62
     7
 10
215.6250000000002
 20
-1881.80459
 30
0.0
 11
271.8750000000002
 21
-1825.55459
 31
0.0
  0
TEXT
  5
3D
  8
HIBINO-BASE
 62
     7
 10
206.2500000000002
 20
-1842.18874
 30
0.0
 40
24.4326171875
  1
1
 41
0.7
 11
206.2500000000002
 21
-1817.7561228125
 31
0.0
 73
     3
  0
LINE
  5
3E
  8
HIBINO-BASE
  6
CONTINUOUS
 62
     7
 10
187.5000000000002
 20
-1900.55459
 30
0.0
 11
187.5000000000002
 21
-1750.55459
 31
0.0
  0
LINE
  5
3F
  8
HIBINO-BASE
  6
CONTINUOUS
 62
     7
 10
337.4999999999998
 20
-1900.55459
 30
0.0
 11
337.4999999999998
 21
-1750.55459
 31
0.0
  0
LINE
  5
40
  8
HIBINO-BASE
  6
CONTINUOUS
 62
     7
 10
712.4999999999998
 20
-1750.55459
 30
0.0
 11
712.4999999999998
 21
-1900.55459
 31
0.0
  0
LINE
  5
41
  8
HIBINO-BASE
  6
CONTINUOUS
 62
     7
 10
1087.5
 20
-1750.55459
 30
0.0
 11
1087.5
 21
-1900.55459
 31
0.0
  0
LINE
  5
42
  8
HIBINO-BASE
  6
CONTINUOUS
 62
     7
 10
899.9999999999998
 20
-1900.55459
 30
0.0
 11
899.9999999999998
 21
-1750.55459
 31
0.0
  0
TEXT
  5
43
  8
HIBINO-BASE
 62
     7
 10
350.3481000000002
 20
-1857.59989
 30
0.0
 40
24.4326171875
  1
'21.06.
 41
0.7
 11
350.3481000000002
 21
-1833.1672728125
 31
0.0
 73
     3
  0
TEXT
  5
44
  8
HIBINO-BASE
 62
     7
 10
262.5000000000002
 20
-1870.31374
 30
0.0
 40
24.4326171875
  1
15
 41
0.7
 11
262.5000000000002
 21
-1845.8811228125
 31
0.0
 73
     3
  0
TEXT
  5
45
  8
HIBINO-BASE
 62
     7
 10
735.0871501655193
 20
-1857.59989
 30
0.0
 40
24.4326171875
  1
N.Sasaki
 41
0.7
 11
735.0871501655193
 21
-1833.1672728125
 31
0.0
 73
     3
  0
TEXT
  5
46
  8
HIBINO-BASE
 62
     7
 10
58.25000000000053
 20
-1870.914589999999
 30
0.0
 40
48.865234375
  1
A4
 41
0.7
 11
58.25000000000053
 21
-1822.049355624999
 31
0.0
 73
     3
  0
TEXT
  5
47
  8
HIBINO-BASE
 62
     7
 10
14.37499999999993
 20
-1789.846415
 30
0.0
 40
24.4326171875
  1
PAPER SIZE
 41
0.7
 11
14.37499999999993
 21
-1765.4137978125
 31
0.0
 73
     3
  0
TEXT
  5
48
  8
HIBINO-BASE
 62
     7
 10
-1242.24
 20
-1996.684757
 30
0.0
 40
54.00066269531249
  1
Hibino Corporation
 41
0.7
 11
-1242.24
 21
-1942.684094304687
 31
0.0
 73
     3
  0
TEXT
  5
49
  8
HIBINO-BASE
 62
     7
 10
751.0258500000002
 20
-1996.684757
 30
0.0
 40
54.00066269531249
  1
ヒビノ株式会社
 41
0.7
 11
751.0258500000002
 21
-1942.684094304687
 31
0.0
 73
     3
  0
TEXT
  5
4A
  8
SPEC
 62
     7
 10
-736.5
 20
1467.514176666667
 30
0.0
 40
28.50472005208333
  1
3.4kg(除延長ポール、含ケーブル)、3.5kg(含延長ポール／ケーブル)
 41
0.7
 11
-736.5
 21
1496.01889671875
 31
0.0
 73
     3
  0
TEXT
  5
4B
  8
SPEC
 62
     7
 10
-1218.75
 20
1870.34446
 30
0.0
 40
36.64892578125
  1
仕様
 41
0.7
 11
-1218.75
 21
1906.99338578125
 31
0.0
 73
     3
  0
TEXT
  5
4C
  8
SPEC
 62
     7
 10
-1224.0
 20
1523.764176666667
 30
0.0
 40
28.50472005208333
  1
寸法(φ×全長)
 41
0.7
 11
-1224.0
 21
1552.26889671875
 31
0.0
 73
     3
  0
LINE
  5
4D
  8
SPEC
  6
CONTINUOUS
 62
     7
 10
-1237.5
 20
1849.44541
 30
0.0
 11
975.0000000000002
 21
1849.44541
 31
0.0
  0
LINE
  5
4E
  8
SPEC
  6
CONTINUOUS
 62
     7
 10
-1237.5
 20
1793.19541
 30
0.0
 11
975.0000000000002
 21
1793.19541
 31
0.0
  0
LINE
  5
4F
  8
SPEC
  6
CONTINUOUS
 62
     7
 10
-1237.5
 20
1849.44541
 30
0.0
 11
-1237.5
 21
1399.445410000001
 31
0.0
  0
LINE
  5
50
  8
SPEC
  6
CONTINUOUS
 62
     7
 10
-750.0
 20
1849.44541
 30
0.0
 11
-750.0
 21
1399.445410000001
 31
0.0
  0
LINE
  5
51
  8
SPEC
  6
CONTINUOUS
 62
     7
 10
975.0000000000002
 20
1849.44541
 30
0.0
 11
975.0000000000002
 21
1399.445410000001
 31
0.0
  0
TEXT
  5
52
  8
SPEC
 62
     7
 10
-1224.0
 20
1467.514176666667
 30
0.0
 40
28.50472005208333
  1
質量
 41
0.7
 11
-1224.0
 21
1496.01889671875
 31
0.0
 73
     3
  0
LINE
  5
53
  8
SPEC
  6
CONTINUOUS
 62
     7
 10
-1237.5
 20
1736.94541
 30
0.0
 11
975.0000000000002
 21
1736.94541
 31
0.0
  0
LINE
  5
54
  8
SPEC
  6
CONTINUOUS
 62
     7
 10
-1237.5
 20
1680.69541
 30
0.0
 11
975.0000000000002
 21
1680.69541
 31
0.0
  0
LINE
  5
55
  8
SPEC
  6
CONTINUOUS
 62
     7
 10
-1237.5
 20
1624.44541
 30
0.0
 11
975.0000000000002
 21
1624.44541
 31
0.0
  0
LINE
  5
56
  8
SPEC
  6
CONTINUOUS
 62
     7
 10
-1237.5
 20
1568.19541
 30
0.0
 11
975.0000000000002
 21
1568.19541
 31
0.0
  0
LINE
  5
57
  8
SPEC
  6
CONTINUOUS
 62
     7
 10
-1237.5
 20
1511.94541
 30
0.0
 11
975.0000000000002
 21
1511.94541
 31
0.0
  0
LINE
  5
58
  8
SPEC
  6
CONTINUOUS
 62
     7
 10
-1237.5
 20
1455.69541
 30
0.0
 11
975.0000000000002
 21
1455.69541
 31
0.0
  0
LINE
  5
59
  8
SPEC
  6
CONTINUOUS
 62
     7
 10
-1237.5
 20
1399.44541
 30
0.0
 11
975.0000000000002
 21
1399.44541
 31
0.0
  0
TEXT
  5
5A
  8
SPEC
 62
     7
 10
-1224.0
 20
1805.014176666666
 30
0.0
 40
28.50472005208333
  1
ローカットフィルター^I
 41
0.7
 11
-1224.0
 21
1833.518896718749
 31
0.0
 73
     3
  0
TEXT
  5
5B
  8
SPEC
 62
     7
 10
-736.5
 20
1523.764176666667
 30
0.0
 40
28.50472005208333
  1
180×1528mm(除延長ポール)、180×1589mm(含延長ポール)
 41
0.7
 11
-736.5
 21
1552.26889671875
 31
0.0
 73
     3
  0
TEXT
  5
5C
  8
SPEC
 62
     7
 10
-1224.0
 20
1748.764176666666
 30
0.0
 40
28.50472005208333
  1
インピーダンス
 41
0.7
 11
-1224.0
 21
1777.26889671875
 31
0.0
 73
     3
  0
TEXT
  5
5D
  8
SPEC
 62
     7
 10
-1224.0
 20
1692.514176666666
 30
0.0
 40
28.50472005208333
  1
電源
 41
0.7
 11
-1224.0
 21
1721.01889671875
 31
0.0
 73
     3
  0
TEXT
  5
5E
  8
SPEC
 62
     7
 10
-1224.0
 20
1636.264176666667
 30
0.0
 40
28.50472005208333
  1
端子
 41
0.7
 11
-1224.0
 21
1664.76889671875
 31
0.0
 73
     3
  0
TEXT
  5
5F
  8
SPEC
 62
     7
 10
-1224.0
 20
1580.014176666667
 30
0.0
 40
28.50472005208333
  1
ケーブル長^I
 41
0.7
 11
-1224.0
 21
1608.51889671875
 31
0.0
 73
     3
  0
TEXT
  5
60
  8
SPEC
 62
     7
 10
-1224.0
 20
1411.264176666667
 30
0.0
 40
28.50472005208333
  1
セット内容^I
 41
0.7
 11
-1224.0
 21
1439.76889671875
 31
0.0
 73
     3
  0
TEXT
  5
61
  8
SPEC
 62
     7
 10
-736.5
 20
1805.014176666666
 30
0.0
 40
28.50472005208333
  1
200Hz(6dB/oct) ※ジャンパーで設定
 41
0.7
 11
-736.5
 21
1833.51889671875
 31
0.0
 73
     3
  0
TEXT
  5
62
  8
SPEC
 62
     7
 10
-736.5
 20
1748.764176666666
 30
0.0
 40
28.50472005208333
  1
600Ω以下
 41
0.7
 11
-736.5
 21
1777.26889671875
 31
0.0
 73
     3
  0
TEXT
  5
63
  8
SPEC
 62
     7
 10
-736.5
 20
1692.514176666666
 30
0.0
 40
28.50472005208333
  1
ファンタム DC9～52V/3mA以下
 41
0.7
 11
-736.5
 21
1721.01889671875
 31
0.0
 73
     3
  0
TEXT
  5
64
  8
SPEC
 62
     7
 10
-736.5
 20
1636.264176666667
 30
0.0
 40
28.50472005208333
  1
XLR(3P)
 41
0.7
 11
-736.5
 21
1664.76889671875
 31
0.0
 73
     3
  0
TEXT
  5
65
  8
SPEC
 62
     7
 10
-736.5
 20
1580.014176666667
 30
0.0
 40
28.50472005208333
  1
約8.5m(含プリアンプ)
 41
0.7
 11
-736.5
 21
1608.51889671875
 31
0.0
 73
     3
  0
TEXT
  5
66
  8
SPEC
 62
     7
 10
-736.5
 20
1411.264176666667
 30
0.0
 40
28.50472005208333
  1
グースネック、丸形ベース、グースネック固定ねじ、延長ポール、延長ポールカバー
 41
0.7
 11
-736.5
 21
1439.76889671875
 31
0.0
 73
     3
  0
TEXT
  5
67
  8
DIMNSIONS
 62
     7
 10
-299.9999999999999
 20
-1716.51224
 30
0.0
 40
36.64892578125
  1
(単位：mm)
 41
0.7
 11
-299.9999999999999
 21
-1679.86331421875
 31
0.0
 73
     3
  0
LINE
  5
68
  8
DIMNSIONS
  6
CONTINUOUS
 62
     7
 10
-524.75
 20
628.0
 30
0.0
 11
-690.0
 21
628.0
 31
0.0
  0
LINE
  5
69
  8
DIMNSIONS
  6
CONTINUOUS
 62
     7
 10
-598.25
 20
-900.0
 30
0.0
 11
-690.0
 21
-900.0
 31
0.0
  0
LINE
  5
6A
  8
DIMNSIONS
  6
CONTINUOUS
 62
     7
 10
-675.0
 20
628.0
 30
0.0
 11
-675.0
 21
-900.0
 31
0.0
  0
LINE
  5
6B
  8
DIMNSIONS
  6
CONTINUOUS
 62
     7
 10
-675.0
 20
628.0
 30
0.0
 11
-666.9620148566911
 21
598.0018310546875
 31
0.0
  0
LINE
  5
6C
  8
DIMNSIONS
  6
CONTINUOUS
 62
     7
 10
-675.0
 20
628.0
 30
0.0
 11
-683.0379851433089
 21
598.0018310546875
 31
0.0
  0
LINE
  5
6D
  8
DIMNSIONS
  6
CONTINUOUS
 62
     7
 10
-675.0
 20
-900.0
 30
0.0
 11
-683.0379851433089
 21
-870.0018310546875
 31
0.0
  0
LINE
  5
6E
  8
DIMNSIONS
  6
CONTINUOUS
 62
     7
 10
-675.0
 20
-900.0
 30
0.0
 11
-666.9620148566911
 21
-870.0018310546875
 31
0.0
  0
TEXT
  5
6F
  8
DIMNSIONS
 62
     7
 10
-689.9083333333333
 20
-188.9166666666667
 30
0.0
 40
40.72102864583334
  1
1528
 50
90.0
 41
0.7
 11
-730.6293619791667
 21
-188.9166666666667
 31
0.0
 73
     3
  0
LINE
  5
70
  8
DIMNSIONS
  6
CONTINUOUS
 62
     7
 10
-1000.0
 20
-832.8500000000001
 30
0.0
 11
-1000.0
 21
-785.0
 31
0.0
  0
LINE
  5
71
  8
DIMNSIONS
  6
CONTINUOUS
 62
     7
 10
-879.0
 20
-838.7900247500002
 30
0.0
 11
-879.0
 21
-785.0
 31
0.0
  0
LINE
  5
72
  8
DIMNSIONS
  6
CONTINUOUS
 62
     7
 10
-1000.0
 20
-800.0
 30
0.0
 11
-879.0
 21
-800.0
 31
0.0
  0
LINE
  5
73
  8
DIMNSIONS
  6
CONTINUOUS
 62
     7
 10
-1000.0
 20
-800.0
 30
0.0
 11
-970.0018310546875
 21
-791.9620148566911
 31
0.0
  0
LINE
  5
74
  8
DIMNSIONS
  6
CONTINUOUS
 62
     7
 10
-1000.0
 20
-800.0
 30
0.0
 11
-970.0018310546875
 21
-808.0379851433089
 31
0.0
  0
LINE
  5
75
  8
DIMNSIONS
  6
CONTINUOUS
 62
     7
 10
-879.0
 20
-800.0
 30
0.0
 11
-908.9981689453125
 21
-808.0379851433089
 31
0.0
  0
LINE
  5
76
  8
DIMNSIONS
  6
CONTINUOUS
 62
     7
 10
-879.0
 20
-800.0
 30
0.0
 11
-908.9981689453125
 21
-791.9620148566911
 31
0.0
  0
TEXT
  5
77
  8
DIMNSIONS
 62
     7
 10
-979.1875
 20
-785.0916666666667
 30
0.0
 40
40.72102864583334
  1
121
 41
0.7
 11
-979.1875
 21
-744.3706380208333
 31
0.0
 73
     3
  0
LINE
  5
78
  8
DIMNSIONS
  6
CONTINUOUS
 62
     7
 10
-1046.573632211454
 20
-869.2105871011804
 30
0.0
 11
-1025.0
 21
-925.0
 31
0.0
  0
LINE
  5
79
  8
DIMNSIONS
  6
CONTINUOUS
 62
     7
 10
-1046.573632211454
 20
-869.2105871011804
 30
0.0
 11
-1027.883430286012
 21
-894.0133227813783
 31
0.0
  0
LINE
  5
7A
  8
DIMNSIONS
  6
CONTINUOUS
 62
     7
 10
-1046.573632211454
 20
-869.2105871011804
 30
0.0
 11
-1042.788810382259
 21
-900.0354872463035
 31
0.0
  0
LINE
  5
7B
  8
DIMNSIONS
  6
CONTINUOUS
 62
     7
 10
-1025.0
 20
-925.0
 30
0.0
 11
-995.0
 21
-925.0
 31
0.0
  0
TEXT
  5
7C
  8
DIMNSIONS
 62
     7
 10
-995.0
 20
-944.0500000000001
 30
0.0
 40
40.72102864583334
  1
φ19.0
 41
0.7
 11
-995.0
 21
-903.3289713541667
 31
0.0
 73
     3
  0
LINE
  5
7D
  8
DIMNSIONS
  6
CONTINUOUS
 62
     7
 10
-605.0
 20
-862.0
 30
0.0
 11
-640.0
 21
-862.0
 31
0.0
  0
LINE
  5
7E
  8
DIMNSIONS
  6
CONTINUOUS
 62
     7
 10
-598.25
 20
-900.0
 30
0.0
 11
-640.0
 21
-900.0
 31
0.0
  0
LINE
  5
7F
  8
DIMNSIONS
  6
CONTINUOUS
 62
     7
 10
-625.0
 20
-900.0
 30
0.0
 11
-625.0
 21
-862.0
 31
0.0
  0
LINE
  5
80
  8
DIMNSIONS
  6
CONTINUOUS
 62
     7
 10
-625.0
 20
-862.0
 30
0.0
 11
-625.0
 21
-809.5
 31
0.0
  0
LINE
  5
81
  8
DIMNSIONS
  6
CONTINUOUS
 62
     7
 10
-625.0
 20
-862.0
 30
0.0
 11
-633.0379851433089
 21
-832.0018310546875
 31
0.0
  0
LINE
  5
82
  8
DIMNSIONS
  6
CONTINUOUS
 62
     7
 10
-625.0
 20
-862.0
 30
0.0
 11
-616.9620148566911
 21
-832.0018310546875
 31
0.0
  0
LINE
  5
83
  8
DIMNSIONS
  6
CONTINUOUS
 62
     7
 10
-625.0
 20
-900.0
 30
0.0
 11
-625.0
 21
-1027.916666666667
 31
0.0
  0
LINE
  5
84
  8
DIMNSIONS
  6
CONTINUOUS
 62
     7
 10
-625.0
 20
-900.0
 30
0.0
 11
-616.9620148566911
 21
-929.9981689453125
 31
0.0
  0
LINE
  5
85
  8
DIMNSIONS
  6
CONTINUOUS
 62
     7
 10
-625.0
 20
-900.0
 30
0.0
 11
-633.0379851433089
 21
-929.9981689453125
 31
0.0
  0
TEXT
  5
86
  8
DIMNSIONS
 62
     7
 10
-639.9083333333334
 20
-1027.916666666667
 30
0.0
 40
40.72102864583337
  1
38.0
 50
90.0
 41
0.7
 11
-680.6293619791668
 21
-1027.916666666667
 31
0.0
 73
     3
  0
LINE
  5
87
  8
DIMNSIONS
  6
CONTINUOUS
 62
     7
 10
-511.75
 20
-840.7
 30
0.0
 11
-511.75
 21
-785.0
 31
0.0
  0
LINE
  5
88
  8
DIMNSIONS
  6
CONTINUOUS
 62
     7
 10
-879.0
 20
-838.7900247500002
 30
0.0
 11
-879.0
 21
-785.0
 31
0.0
  0
LINE
  5
89
  8
DIMNSIONS
  6
CONTINUOUS
 62
     7
 10
-511.75
 20
-800.0
 30
0.0
 11
-879.0
 21
-800.0
 31
0.0
  0
LINE
  5
8A
  8
DIMNSIONS
  6
CONTINUOUS
 62
     7
 10
-511.75
 20
-800.0
 30
0.0
 11
-541.7481689453125
 21
-808.0379851433089
 31
0.0
  0
LINE
  5
8B
  8
DIMNSIONS
  6
CONTINUOUS
 62
     7
 10
-511.75
 20
-800.0
 30
0.0
 11
-541.7481689453125
 21
-791.9620148566911
 31
0.0
  0
LINE
  5
8C
  8
DIMNSIONS
  6
CONTINUOUS
 62
     7
 10
-879.0
 20
-800.0
 30
0.0
 11
-849.0018310546875
 21
-791.9620148566911
 31
0.0
  0
LINE
  5
8D
  8
DIMNSIONS
  6
CONTINUOUS
 62
     7
 10
-879.0
 20
-800.0
 30
0.0
 11
-849.0018310546875
 21
-808.0379851433089
 31
0.0
  0
TEXT
  5
8E
  8
DIMNSIONS
 62
     7
 10
-792.2182821118989
 20
-785.0916666666666
 30
0.0
 40
40.72102864583337
  1
8400
 41
0.7
 11
-792.2182821118989
 21
-744.3706380208332
 31
0.0
 73
     3
  0
LINE
  5
8F
  8
DIMNSIONS
  6
CONTINUOUS
 62
     7
 10
-443.7774457201018
 20
-1145.278192849873
 30
0.0
 11
-400.0
 21
-1200.0
 31
0.0
  0
LINE
  5
90
  8
DIMNSIONS
  6
CONTINUOUS
 62
     7
 10
-443.7774457201018
 20
-1145.278192849873
 30
0.0
 11
-418.6522986162851
 21
-1163.532680743186
 31
0.0
  0
LINE
  5
91
  8
DIMNSIONS
  6
CONTINUOUS
 62
     7
 10
-443.7774457201018
 20
-1145.278192849873
 30
0.0
 11
-431.1456740010323
 21
-1173.649616650466
 31
0.0
  0
LINE
  5
92
  8
DIMNSIONS
  6
CONTINUOUS
 62
     7
 10
-400.0
 20
-1200.0
 30
0.0
 11
-370.0
 21
-1200.0
 31
0.0
  0
TEXT
  5
93
  8
DIMNSIONS
 62
     7
 10
-370.0
 20
-1219.05
 30
0.0
 40
40.72102864583337
  1
φ180
 41
0.7
 11
-370.0
 21
-1178.328971354166
 31
0.0
 73
     3
  0
LINE
  5
94
  8
DIMNSIONS
  6
CONTINUOUS
 62
     7
 10
475.25
 20
628.0
 30
0.0
 11
310.0
 21
628.0
 31
0.0
  0
LINE
  5
95
  8
DIMNSIONS
  6
CONTINUOUS
 62
     7
 10
401.75
 20
-961.0
 30
0.0
 11
310.0
 21
-961.0
 31
0.0
  0
LINE
  5
96
  8
DIMNSIONS
  6
CONTINUOUS
 62
     7
 10
325.0
 20
628.0
 30
0.0
 11
325.0
 21
-961.0
 31
0.0
  0
LINE
  5
97
  8
DIMNSIONS
  6
CONTINUOUS
 62
     7
 10
325.0
 20
628.0
 30
0.0
 11
333.0379851433088
 21
598.0018310546875
 31
0.0
  0
LINE
  5
98
  8
DIMNSIONS
  6
CONTINUOUS
 62
     7
 10
325.0
 20
628.0
 30
0.0
 11
316.9620148566912
 21
598.0018310546875
 31
0.0
  0
LINE
  5
99
  8
DIMNSIONS
  6
CONTINUOUS
 62
     7
 10
325.0
 20
-961.0
 30
0.0
 11
316.9620148566912
 21
-931.0018310546875
 31
0.0
  0
LINE
  5
9A
  8
DIMNSIONS
  6
CONTINUOUS
 62
     7
 10
325.0
 20
-961.0
 30
0.0
 11
333.0379851433088
 21
-931.0018310546875
 31
0.0
  0
TEXT
  5
9B
  8
DIMNSIONS
 62
     7
 10
310.0916666666667
 20
-219.4166666666667
 30
0.0
 40
40.72102864583334
  1
1589
 50
90.0
 41
0.7
 11
269.3706380208333
 21
-219.4166666666667
 31
0.0
 73
     3
  0
LINE
  5
9C
  8
DIMNSIONS
  6
CONTINUOUS
 62
     7
 10
0.0
 20
-832.8500000000001
 30
0.0
 11
0.0
 21
-785.0
 31
0.0
  0
LINE
  5
9D
  8
DIMNSIONS
  6
CONTINUOUS
 62
     7
 10
121.0
 20
-838.7900247500002
 30
0.0
 11
121.0
 21
-785.0
 31
0.0
  0
LINE
  5
9E
  8
DIMNSIONS
  6
CONTINUOUS
 62
     7
 10
0.0
 20
-800.0
 30
0.0
 11
121.0
 21
-800.0
 31
0.0
  0
LINE
  5
9F
  8
DIMNSIONS
  6
CONTINUOUS
 62
     7
 10
0.0
 20
-800.0
 30
0.0
 11
29.9981689453125
 21
-791.9620148566911
 31
0.0
  0
LINE
  5
A0
  8
DIMNSIONS
  6
CONTINUOUS
 62
     7
 10
0.0
 20
-800.0
 30
0.0
 11
29.9981689453125
 21
-808.0379851433089
 31
0.0
  0
LINE
  5
A1
  8
DIMNSIONS
  6
CONTINUOUS
 62
     7
 10
121.0
 20
-800.0
 30
0.0
 11
91.0018310546875
 21
-808.0379851433089
 31
0.0
  0
LINE
  5
A2
  8
DIMNSIONS
  6
CONTINUOUS
 62
     7
 10
121.0
 20
-800.0
 30
0.0
 11
91.0018310546875
 21
-791.9620148566911
 31
0.0
  0
TEXT
  5
A3
  8
DIMNSIONS
 62
     7
 10
20.8125
 20
-785.0916666666667
 30
0.0
 40
40.72102864583334
  1
121
 41
0.7
 11
20.8125
 21
-744.3706380208333
 31
0.0
 73
     3
  0
LINE
  5
A4
  8
DIMNSIONS
  6
CONTINUOUS
 62
     7
 10
-46.57363221145397
 20
-869.2105871011804
 30
0.0
 11
-25.00000000000009
 21
-925.0
 31
0.0
  0
LINE
  5
A5
  8
DIMNSIONS
  6
CONTINUOUS
 62
     7
 10
-46.57363221145397
 20
-869.2105871011804
 30
0.0
 11
-27.88343028601176
 21
-894.0133227813783
 31
0.0
  0
LINE
  5
A6
  8
DIMNSIONS
  6
CONTINUOUS
 62
     7
 10
-46.57363221145397
 20
-869.2105871011804
 30
0.0
 11
-42.78881038225914
 21
-900.0354872463035
 31
0.0
  0
LINE
  5
A7
  8
DIMNSIONS
  6
CONTINUOUS
 62
     7
 10
-25.00000000000009
 20
-925.0
 30
0.0
 11
4.999999999999915
 21
-925.0
 31
0.0
  0
TEXT
  5
A8
  8
DIMNSIONS
 62
     7
 10
4.999999999999915
 20
-944.0500000000001
 30
0.0
 40
40.72102864583334
  1
φ19.0
 41
0.7
 11
4.999999999999915
 21
-903.3289713541667
 31
0.0
 73
     3
  0
LINE
  5
A9
  8
DIMNSIONS
  6
CONTINUOUS
 62
     7
 10
395.0
 20
-923.0
 30
0.0
 11
360.0
 21
-923.0
 31
0.0
  0
LINE
  5
AA
  8
DIMNSIONS
  6
CONTINUOUS
 62
     7
 10
401.75
 20
-961.0
 30
0.0
 11
360.0
 21
-961.0
 31
0.0
  0
LINE
  5
AB
  8
DIMNSIONS
  6
CONTINUOUS
 62
     7
 10
375.0
 20
-961.0
 30
0.0
 11
375.0
 21
-923.0
 31
0.0
  0
LINE
  5
AC
  8
DIMNSIONS
  6
CONTINUOUS
 62
     7
 10
375.0
 20
-923.0
 30
0.0
 11
375.0
 21
-870.5
 31
0.0
  0
LINE
  5
AD
  8
DIMNSIONS
  6
CONTINUOUS
 62
     7
 10
375.0
 20
-923.0
 30
0.0
 11
366.9620148566912
 21
-893.0018310546875
 31
0.0
  0
LINE
  5
AE
  8
DIMNSIONS
  6
CONTINUOUS
 62
     7
 10
375.0
 20
-923.0
 30
0.0
 11
383.0379851433088
 21
-893.0018310546875
 31
0.0
  0
LINE
  5
AF
  8
DIMNSIONS
  6
CONTINUOUS
 62
     7
 10
375.0
 20
-961.0
 30
0.0
 11
375.0
 21
-1088.916666666667
 31
0.0
  0
LINE
  5
B0
  8
DIMNSIONS
  6
CONTINUOUS
 62
     7
 10
375.0
 20
-961.0
 30
0.0
 11
383.0379851433088
 21
-990.9981689453125
 31
0.0
  0
LINE
  5
B1
  8
DIMNSIONS
  6
CONTINUOUS
 62
     7
 10
375.0
 20
-961.0
 30
0.0
 11
366.9620148566912
 21
-990.9981689453125
 31
0.0
  0
TEXT
  5
B2
  8
DIMNSIONS
 62
     7
 10
360.0916666666666
 20
-1088.916666666667
 30
0.0
 40
40.72102864583337
  1
38.0
 50
90.0
 41
0.7
 11
319.3706380208333
 21
-1088.916666666667
 31
0.0
 73
     3
  0
LINE
  5
B3
  8
DIMNSIONS
  6
CONTINUOUS
 62
     7
 10
488.25
 20
-840.7
 30
0.0
 11
488.25
 21
-785.0
 31
0.0
  0
LINE
  5
B4
  8
DIMNSIONS
  6
CONTINUOUS
 62
     7
 10
121.0
 20
-838.7900247500002
 30
0.0
 11
121.0
 21
-785.0
 31
0.0
  0
LINE
  5
B5
  8
DIMNSIONS
  6
CONTINUOUS
 62
     7
 10
488.25
 20
-800.0
 30
0.0
 11
121.0
 21
-800.0
 31
0.0
  0
LINE
  5
B6
  8
DIMNSIONS
  6
CONTINUOUS
 62
     7
 10
488.25
 20
-800.0
 30
0.0
 11
458.2518310546875
 21
-808.0379851433089
 31
0.0
  0
LINE
  5
B7
  8
DIMNSIONS
  6
CONTINUOUS
 62
     7
 10
488.25
 20
-800.0
 30
0.0
 11
458.2518310546875
 21
-791.9620148566911
 31
0.0
  0
LINE
  5
B8
  8
DIMNSIONS
  6
CONTINUOUS
 62
     7
 10
121.0
 20
-800.0
 30
0.0
 11
150.9981689453125
 21
-791.9620148566911
 31
0.0
  0
LINE
  5
B9
  8
DIMNSIONS
  6
CONTINUOUS
 62
     7
 10
121.0
 20
-800.0
 30
0.0
 11
150.9981689453125
 21
-808.0379851433089
 31
0.0
  0
TEXT
  5
BA
  8
DIMNSIONS
 62
     7
 10
207.781717888101
 20
-785.0916666666666
 30
0.0
 40
40.72102864583337
  1
8400
 41
0.7
 11
207.781717888101
 21
-744.3706380208332
 31
0.0
 73
     3
  0
LINE
  5
BB
  8
DIMNSIONS
  6
CONTINUOUS
 62
     7
 10
556.2225542798982
 20
-1220.278192849873
 30
0.0
 11
600.0
 21
-1275.0
 31
0.0
  0
LINE
  5
BC
  8
DIMNSIONS
  6
CONTINUOUS
 62
     7
 10
556.2225542798982
 20
-1220.278192849873
 30
0.0
 11
581.3477013837149
 21
-1238.532680743186
 31
0.0
  0
LINE
  5
BD
  8
DIMNSIONS
  6
CONTINUOUS
 62
     7
 10
556.2225542798982
 20
-1220.278192849873
 30
0.0
 11
568.8543259989677
 21
-1248.649616650466
 31
0.0
  0
LINE
  5
BE
  8
DIMNSIONS
  6
CONTINUOUS
 62
     7
 10
600.0
 20
-1275.0
 30
0.0
 11
630.0
 21
-1275.0
 31
0.0
  0
TEXT
  5
BF
  8
DIMNSIONS
 62
     7
 10
630.0
 20
-1294.05
 30
0.0
 40
40.72102864583337
  1
φ180
 41
0.7
 11
630.0
 21
-1253.328971354166
 31
0.0
 73
     3
  0
POLYLINE
  5
C0
  8
DATA
  6
CONTINUOUS
 62
     7
 66
     1
 10
0.0
 20
0.0
 30
0.0
 70
     1
  0
VERTEX
  5
411
  8
DATA
  6
CONTINUOUS
 62
     7
 10
-504.55
 20
198.6
 30
0.0
  0
VERTEX
  5
412
  8
DATA
  6
CONTINUOUS
 62
     7
 10
-495.45
 20
198.6
 30
0.0
  0
VERTEX
  5
413
  8
DATA
  6
CONTINUOUS
 62
     7
 10
-495.45
 20
194.9
 30
0.0
  0
VERTEX
  5
414
  8
DATA
  6
CONTINUOUS
 62
     7
 10
-504.55
 20
194.9
 30
0.0
  0
SEQEND
  5
483
  8
DATA
  6
CONTINUOUS
 62
     7
  0
POLYLINE
  5
C7
  8
DATA
  6
CONTINUOUS
 62
     7
 66
     1
 10
0.0
 20
0.0
 30
0.0
 70
     1
  0
VERTEX
  5
415
  8
DATA
  6
CONTINUOUS
 62
     7
 10
-504.55
 20
203.0
 30
0.0
  0
VERTEX
  5
416
  8
DATA
  6
CONTINUOUS
 62
     7
 10
-495.45
 20
203.0
 30
0.0
  0
VERTEX
  5
417
  8
DATA
  6
CONTINUOUS
 62
     7
 10
-495.45
 20
199.4
 30
0.0
  0
VERTEX
  5
418
  8
DATA
  6
CONTINUOUS
 62
     7
 10
-504.55
 20
199.4
 30
0.0
  0
SEQEND
  5
484
  8
DATA
  6
CONTINUOUS
 62
     7
  0
POLYLINE
  5
CE
  8
DATA
  6
CONTINUOUS
 62
     7
 66
     1
 10
0.0
 20
0.0
 30
0.0
 70
     1
  0
VERTEX
  5
419
  8
DATA
  6
CONTINUOUS
 62
     7
 10
-504.55
 20
262.1
 30
0.0
  0
VERTEX
  5
41A
  8
DATA
  6
CONTINUOUS
 62
     7
 10
-495.45
 20
262.1
 30
0.0
  0
VERTEX
  5
41B
  8
DATA
  6
CONTINUOUS
 62
     7
 10
-495.45
 20
258.0
 30
0.0
  0
VERTEX
  5
41C
  8
DATA
  6
CONTINUOUS
 62
     7
 10
-504.55
 20
258.0
 30
0.0
  0
SEQEND
  5
485
  8
DATA
  6
CONTINUOUS
 62
     7
  0
POLYLINE
  5
D5
  8
DATA
  6
CONTINUOUS
 62
     7
 66
     1
 10
0.0
 20
0.0
 30
0.0
 70
     1
  0
VERTEX
  5
41D
  8
DATA
  6
CONTINUOUS
 62
     7
 10
-504.55
 20
265.6
 30
0.0
  0
VERTEX
  5
41E
  8
DATA
  6
CONTINUOUS
 62
     7
 10
-495.45
 20
265.6
 30
0.0
  0
VERTEX
  5
41F
  8
DATA
  6
CONTINUOUS
 62
     7
 10
-495.45
 20
262.9
 30
0.0
  0
VERTEX
  5
420
  8
DATA
  6
CONTINUOUS
 62
     7
 10
-504.55
 20
262.9
 30
0.0
  0
SEQEND
  5
486
  8
DATA
  6
CONTINUOUS
 62
     7
  0
POLYLINE
  5
DC
  8
DATA
  6
CONTINUOUS
 62
     7
 66
     1
 10
0.0
 20
0.0
 30
0.0
 70
     1
  0
VERTEX
  5
421
  8
DATA
  6
CONTINUOUS
 62
     7
 10
-504.55
 20
518.5999999999999
 30
0.0
  0
VERTEX
  5
422
  8
DATA
  6
CONTINUOUS
 62
     7
 10
-495.45
 20
518.5999999999999
 30
0.0
  0
VERTEX
  5
423
  8
DATA
  6
CONTINUOUS
 62
     7
 10
-495.45
 20
514.9000000000001
 30
0.0
  0
VERTEX
  5
424
  8
DATA
  6
CONTINUOUS
 62
     7
 10
-504.55
 20
514.9000000000001
 30
0.0
  0
SEQEND
  5
487
  8
DATA
  6
CONTINUOUS
 62
     7
  0
POLYLINE
  5
E3
  8
DATA
  6
CONTINUOUS
 62
     7
 66
     1
 10
0.0
 20
0.0
 30
0.0
 70
     1
  0
VERTEX
  5
425
  8
DATA
  6
CONTINUOUS
 62
     7
 10
-504.55
 20
523.0
 30
0.0
  0
VERTEX
  5
426
  8
DATA
  6
CONTINUOUS
 62
     7
 10
-495.45
 20
523.0
 30
0.0
  0
VERTEX
  5
427
  8
DATA
  6
CONTINUOUS
 62
     7
 10
-495.45
 20
519.4000000000001
 30
0.0
  0
VERTEX
  5
428
  8
DATA
  6
CONTINUOUS
 62
     7
 10
-504.55
 20
519.4000000000001
 30
0.0
  0
SEQEND
  5
488
  8
DATA
  6
CONTINUOUS
 62
     7
  0
TEXT
  5
EA
  8
DATA
 62
     7
 10
-1320.0
 20
-1782.410423333333
 30
0.0
 40
28.50472005208334
  1
※仕様及び外観は予告なく変更されることがあります。
 41
0.7
 11
-1320.0
 21
-1753.90570328125
 31
0.0
 73
     3
  0
TEXT
  5
EB
  8
DATA
 62
     7
 10
-1320.0
 20
-1819.45209
 30
0.0
 40
28.50472005208334
  1
　また、同一商品でも若干の個体差があることがあります。ご了承ください。
 41
0.7
 11
-1320.0
 21
-1790.947369947916
 31
0.0
 73
     3
  0
TEXT
  5
EC
  8
DATA
 62
     7
 10
749.9999999999998
 20
-1624.841239999999
 30
0.0
 40
36.64892578125
  1
AKG
 41
0.7
 11
749.9999999999998
 21
-1588.192314218749
 31
0.0
 73
     3
  0
TEXT
  5
ED
  8
DATA
 62
     7
 10
749.9999999999998
 20
-1733.591239999999
 30
0.0
 40
36.64892578125
  1
GN155 Set
 41
0.7
 11
749.9999999999998
 21
-1696.942314218749
 31
0.0
 73
     3
  0
TEXT
  5
EE
  8
DATA
 62
     7
 10
712.4999999999998
 20
-1678.900565
 30
0.0
 40
28.50472005208334
  1
グースネック・モジュール
 41
0.7
 11
712.4999999999998
 21
-1650.395844947917
 31
0.0
 73
     3
  0
LINE
  5
EF
  8
DATA
  6
CONTINUOUS
 62
     7
 10
-511.75
 20
-862.0
 30
0.0
 11
-511.75
 21
-852.0
 31
0.0
  0
LINE
  5
F0
  8
DATA
  6
CONTINUOUS
 62
     7
 10
-488.25
 20
-852.0
 30
0.0
 11
-488.25
 21
-862.0
 31
0.0
  0
LINE
  5
F1
  8
DATA
  6
CONTINUOUS
 62
     7
 10
-511.75
 20
-852.0
 30
0.0
 11
-488.25
 21
-852.0
 31
0.0
  0
LINE
  5
F2
  8
DATA
  6
CONTINUOUS
 62
     7
 10
-506.25
 20
-806.5
 30
0.0
 11
-505.7
 21
-772.0
 31
0.0
  0
ARC
  5
F3
  8
DATA
  6
CONTINUOUS
 62
     7
 10
-806.52734375
 20
-793.28515625
 30
0.0
 40
300.5679877579989
 50
348.7350459288817
 51
357.480107826148
  0
LINE
  5
F4
  8
DATA
  6
CONTINUOUS
 62
     7
 10
-493.75
 20
-806.5
 30
0.0
 11
-494.3
 21
-772.0
 31
0.0
  0
ARC
  5
F5
  8
DATA
  6
CONTINUOUS
 62
     7
 10
-193.47265625
 20
-793.28515625
 30
0.0
 40
300.5679877579989
 50
182.519892173852
 51
191.2649540711182
  0
LINE
  5
F6
  8
DATA
  6
CONTINUOUS
 62
     7
 10
-505.7
 20
-772.0
 30
0.0
 11
-494.3
 21
-772.0
 31
0.0
  0
LINE
  5
F7
  8
DATA
  6
CONTINUOUS
 62
     7
 10
-494.75
 20
-771.5
 30
0.0
 11
-505.25
 21
-771.5
 31
0.0
  0
LINE
  5
F8
  8
DATA
  6
CONTINUOUS
 62
     7
 10
-504.55
 20
-771.5
 30
0.0
 11
-504.55
 21
194.1
 31
0.0
  0
LINE
  5
F9
  8
DATA
  6
CONTINUOUS
 62
     7
 10
-495.45
 20
194.1
 30
0.0
 11
-495.45
 21
-771.5
 31
0.0
  0
LINE
  5
FA
  8
DATA
  6
CONTINUOUS
 62
     7
 10
-504.55
 20
194.1
 30
0.0
 11
-495.45
 21
194.1
 31
0.0
  0
LINE
  5
FB
  8
DATA
  6
CONTINUOUS
 62
     7
 10
-505.7
 20
-772.0
 30
0.0
 11
-505.25
 21
-771.5
 31
0.0
  0
LINE
  5
FC
  8
DATA
  6
CONTINUOUS
 62
     7
 10
-494.75
 20
-771.5
 30
0.0
 11
-494.3
 21
-772.0
 31
0.0
  0
LINE
  5
FD
  8
DATA
  6
CONTINUOUS
 62
     7
 10
-506.75
 20
628.0
 30
0.0
 11
-493.25
 21
628.0
 31
0.0
  0
ARC
  5
FE
  8
DATA
  6
CONTINUOUS
 62
     7
 10
-504.6666666666666
 20
199.0
 30
0.0
 40
0.416666666666647
 50
286.2602047083138
 51
73.73979529168616
  0
ARC
  5
FF
  8
DATA
  6
CONTINUOUS
 62
     7
 10
-504.6666666666666
 20
194.5
 30
0.0
 40
0.416666666666647
 50
286.2602047083138
 51
73.73979529168616
  0
ARC
  5
100
  8
DATA
  6
CONTINUOUS
 62
     7
 10
-495.3333333333334
 20
199.0
 30
0.0
 40
0.416666666666647
 50
106.2602047083139
 51
253.7397952916861
  0
ARC
  5
101
  8
DATA
  6
CONTINUOUS
 62
     7
 10
-495.3333333333334
 20
194.5
 30
0.0
 40
0.416666666666647
 50
106.2602047083139
 51
253.7397952916861
  0
LINE
  5
102
  8
DATA
  6
CONTINUOUS
 62
     7
 10
-504.0
 20
203.0
 30
0.0
 11
-504.0
 21
258.0
 31
0.0
  0
LINE
  5
103
  8
DATA
  6
CONTINUOUS
 62
     7
 10
-496.0
 20
203.8
 30
0.0
 11
-504.0
 21
203.0
 31
0.0
  0
LINE
  5
104
  8
DATA
  6
CONTINUOUS
 62
     7
 10
-496.0
 20
258.0
 30
0.0
 11
-496.0
 21
203.0
 31
0.0
  0
ARC
  5
105
  8
DATA
  6
CONTINUOUS
 62
     7
 10
-504.6666666666666
 20
262.5
 30
0.0
 40
0.416666666666647
 50
286.2602047083138
 51
73.73979529168616
  0
ARC
  5
106
  8
DATA
  6
CONTINUOUS
 62
     7
 10
-495.3333333333334
 20
262.5
 30
0.0
 40
0.416666666666647
 50
106.2602047083139
 51
253.7397952916861
  0
ARC
  5
107
  8
DATA
  6
CONTINUOUS
 62
     7
 10
-504.6666666666666
 20
266.0
 30
0.0
 40
0.416666666666647
 50
286.2602047083138
 51
73.73979529168616
  0
ARC
  5
108
  8
DATA
  6
CONTINUOUS
 62
     7
 10
-495.3333333333334
 20
266.0
 30
0.0
 40
0.416666666666647
 50
106.2602047083139
 51
253.7397952916861
  0
LINE
  5
109
  8
DATA
  6
CONTINUOUS
 62
     7
 10
-496.0
 20
206.8
 30
0.0
 11
-504.0
 21
206.0
 31
0.0
  0
LINE
  5
10A
  8
DATA
  6
CONTINUOUS
 62
     7
 10
-496.0
 20
209.8
 30
0.0
 11
-504.0
 21
209.0
 31
0.0
  0
LINE
  5
10B
  8
DATA
  6
CONTINUOUS
 62
     7
 10
-496.0
 20
212.8
 30
0.0
 11
-504.0
 21
212.0
 31
0.0
  0
LINE
  5
10C
  8
DATA
  6
CONTINUOUS
 62
     7
 10
-496.0
 20
215.8
 30
0.0
 11
-504.0
 21
215.0
 31
0.0
  0
LINE
  5
10D
  8
DATA
  6
CONTINUOUS
 62
     7
 10
-496.0
 20
218.8
 30
0.0
 11
-504.0
 21
218.0
 31
0.0
  0
LINE
  5
10E
  8
DATA
  6
CONTINUOUS
 62
     7
 10
-496.0
 20
221.8
 30
0.0
 11
-504.0
 21
221.0
 31
0.0
  0
LINE
  5
10F
  8
DATA
  6
CONTINUOUS
 62
     7
 10
-496.0
 20
224.8
 30
0.0
 11
-504.0
 21
224.0
 31
0.0
  0
LINE
  5
110
  8
DATA
  6
CONTINUOUS
 62
     7
 10
-496.0
 20
227.8
 30
0.0
 11
-504.0
 21
227.0
 31
0.0
  0
LINE
  5
111
  8
DATA
  6
CONTINUOUS
 62
     7
 10
-496.0
 20
230.8
 30
0.0
 11
-504.0
 21
230.0
 31
0.0
  0
LINE
  5
112
  8
DATA
  6
CONTINUOUS
 62
     7
 10
-496.0
 20
233.8
 30
0.0
 11
-504.0
 21
233.0
 31
0.0
  0
LINE
  5
113
  8
DATA
  6
CONTINUOUS
 62
     7
 10
-496.0
 20
236.8
 30
0.0
 11
-504.0
 21
236.0
 31
0.0
  0
LINE
  5
114
  8
DATA
  6
CONTINUOUS
 62
     7
 10
-496.0
 20
239.8
 30
0.0
 11
-504.0
 21
239.0
 31
0.0
  0
LINE
  5
115
  8
DATA
  6
CONTINUOUS
 62
     7
 10
-496.0
 20
242.8
 30
0.0
 11
-504.0
 21
242.0
 31
0.0
  0
LINE
  5
116
  8
DATA
  6
CONTINUOUS
 62
     7
 10
-496.0
 20
245.8
 30
0.0
 11
-504.0
 21
245.0
 31
0.0
  0
LINE
  5
117
  8
DATA
  6
CONTINUOUS
 62
     7
 10
-496.0
 20
248.8
 30
0.0
 11
-504.0
 21
248.0
 31
0.0
  0
LINE
  5
118
  8
DATA
  6
CONTINUOUS
 62
     7
 10
-496.0
 20
251.8
 30
0.0
 11
-504.0
 21
251.0
 31
0.0
  0
LINE
  5
119
  8
DATA
  6
CONTINUOUS
 62
     7
 10
-496.0
 20
254.8
 30
0.0
 11
-504.0
 21
254.0
 31
0.0
  0
LINE
  5
11A
  8
DATA
  6
CONTINUOUS
 62
     7
 10
-496.0
 20
257.8
 30
0.0
 11
-504.0
 21
257.0
 31
0.0
  0
POLYLINE
  5
11B
  8
DATA
  6
CONTINUOUS
 62
     7
 66
     1
 10
0.0
 20
0.0
 30
0.0
 70
     1
  0
VERTEX
  5
429
  8
DATA
  6
CONTINUOUS
 62
     7
 10
-504.55
 20
514.0999999999999
 30
0.0
  0
VERTEX
  5
42A
  8
DATA
  6
CONTINUOUS
 62
     7
 10
-495.45
 20
514.0999999999999
 30
0.0
  0
VERTEX
  5
42B
  8
DATA
  6
CONTINUOUS
 62
     7
 10
-495.45
 20
266.4
 30
0.0
  0
VERTEX
  5
42C
  8
DATA
  6
CONTINUOUS
 62
     7
 10
-504.55
 20
266.4
 30
0.0
  0
SEQEND
  5
489
  8
DATA
  6
CONTINUOUS
 62
     7
  0
LINE
  5
122
  8
DATA
  6
CONTINUOUS
 62
     7
 10
-504.75
 20
588.9
 30
0.0
 11
-504.75
 21
603.0
 31
0.0
  0
LINE
  5
123
  8
DATA
  6
CONTINUOUS
 62
     7
 10
-495.25
 20
588.9000000000001
 30
0.0
 11
-495.25
 21
603.0
 31
0.0
  0
LINE
  5
124
  8
DATA
  6
CONTINUOUS
 62
     7
 10
-504.75
 20
603.0
 30
0.0
 11
-495.25
 21
603.0
 31
0.0
  0
ARC
  5
125
  8
DATA
  6
CONTINUOUS
 62
     7
 10
-360.6111111111111
 20
627.1111111111111
 30
0.0
 40
146.1415921944736
 50
179.6515030727649
 51
189.4963394470368
  0
ARC
  5
126
  8
DATA
  6
CONTINUOUS
 62
     7
 10
-639.3888888888889
 20
627.1111111111111
 30
0.0
 40
146.1415921944735
 50
350.5036605529631
 51
0.3484969272351464
  0
LINE
  5
127
  8
DATA
  6
CONTINUOUS
 62
     7
 10
-506.25
 20
-806.5
 30
0.0
 11
-493.75
 21
-806.5
 31
0.0
  0
ARC
  5
128
  8
DATA
  6
CONTINUOUS
 62
     7
 10
-504.8666666666667
 20
585.0
 30
0.0
 40
0.416666666666647
 50
286.2602047083138
 51
73.73979529169054
  0
ARC
  5
129
  8
DATA
  6
CONTINUOUS
 62
     7
 10
-495.1333333333333
 20
585.0
 30
0.0
 40
0.4166666666667561
 50
106.2602047083095
 51
253.7397952916861
  0
ARC
  5
12A
  8
DATA
  6
CONTINUOUS
 62
     7
 10
-504.8666666666667
 20
588.5
 30
0.0
 40
0.416666666666647
 50
286.2602047083138
 51
73.73979529169054
  0
ARC
  5
12B
  8
DATA
  6
CONTINUOUS
 62
     7
 10
-495.1333333333333
 20
588.5
 30
0.0
 40
0.4166666666667561
 50
106.2602047083095
 51
253.7397952916861
  0
LINE
  5
12C
  8
DATA
  6
CONTINUOUS
 62
     7
 10
-504.75
 20
588.9000000000001
 30
0.0
 11
-495.25
 21
588.9000000000001
 31
0.0
  0
CIRCLE
  5
12D
  8
DATA
  6
CONTINUOUS
 62
     7
 10
-500.0
 20
799.9999999999998
 30
0.0
 40
6.75
  0
POLYLINE
  5
12E
  8
DATA
  6
CONTINUOUS
 62
     7
 66
     1
 10
0.0
 20
0.0
 30
0.0
 70
     1
  0
VERTEX
  5
42D
  8
DATA
  6
CONTINUOUS
 62
     7
 10
-506.1877506801495
 20
619.0
 30
0.0
  0
VERTEX
  5
42E
  8
DATA
  6
CONTINUOUS
 62
     7
 10
-493.8122493198505
 20
619.0
 30
0.0
  0
VERTEX
  5
42F
  8
DATA
  6
CONTINUOUS
 62
     7
 10
-493.8122493198505
 20
616.5
 30
0.0
  0
VERTEX
  5
430
  8
DATA
  6
CONTINUOUS
 62
     7
 10
-506.1877506801495
 20
616.5
 30
0.0
  0
SEQEND
  5
48A
  8
DATA
  6
CONTINUOUS
 62
     7
  0
CIRCLE
  5
135
  8
DATA
  6
CONTINUOUS
 62
     7
 10
-500.0
 20
799.9999999999998
 30
0.0
 40
5.649999999999977
  0
CIRCLE
  5
136
  8
DATA
  6
CONTINUOUS
 62
     7
 10
-500.0
 20
799.9999999999998
 30
0.0
 40
1.75
  0
TEXT
  5
137
  8
DATA
 62
     7
 10
-502.8124657118055
 20
-850.8144205729167
 30
0.0
 40
1.628841145833333
  1
GN 155
 41
0.7
 72
     1
 11
-500.0
 21
-850.0
 31
0.0
 73
     2
  0
ARC
  5
138
  8
DATA
  6
CONTINUOUS
 62
     7
 10
-500.0000000001137
 20
799.9999999999999
 30
0.0
 40
89.9999999998863
 50
181.0504814764288
 51
178.9495185235712
  0
ARC
  5
139
  8
DATA
  6
CONTINUOUS
 62
     7
 10
-500.0000000001169
 20
799.9999999999974
 30
0.0
 40
70.9999999998831
 50
181.3316415185049
 51
178.6683584814911
  0
ARC
  5
13A
  8
DATA
  6
CONTINUOUS
 62
     7
 10
-500.0000000002676
 20
800.0
 30
0.0
 40
87.49999999973241
 50
181.0804987419344
 51
178.9195012580656
  0
ARC
  5
13B
  8
DATA
  6
CONTINUOUS
 62
     7
 10
-500.0000000002805
 20
800.0
 30
0.0
 40
72.9999999997196
 50
181.2951518864017
 51
178.7048481135984
  0
POLYLINE
  5
13C
  8
DATA
  6
CONTINUOUS
 62
     7
 66
     1
 10
0.0
 20
0.0
 30
0.0
 70
     1
  0
VERTEX
  5
431
  8
DATA
  6
CONTINUOUS
 62
     7
 10
-590.0
 20
-881.0
 30
0.0
  0
VERTEX
  5
432
  8
DATA
  6
CONTINUOUS
 62
     7
 10
-410.0
 20
-881.0
 30
0.0
  0
VERTEX
  5
433
  8
DATA
  6
CONTINUOUS
 62
     7
 10
-410.0
 20
-894.0
 30
0.0
  0
VERTEX
  5
434
  8
DATA
  6
CONTINUOUS
 62
     7
 10
-590.0
 20
-894.0
 30
0.0
  0
SEQEND
  5
48B
  8
DATA
  6
CONTINUOUS
 62
     7
  0
LINE
  5
143
  8
DATA
  6
CONTINUOUS
 62
     7
 10
-587.5
 20
-894.0
 30
0.0
 11
-587.5
 21
-897.0
 31
0.0
  0
ARC
  5
144
  8
DATA
  6
CONTINUOUS
 62
     7
 10
-580.25
 20
-889.7395833333335
 30
0.0
 40
10.26041666666656
 50
225.0411312057932
 51
270.0
  0
LINE
  5
145
  8
DATA
  6
CONTINUOUS
 62
     7
 10
-412.5
 20
-894.0
 30
0.0
 11
-412.5
 21
-897.0
 31
0.0
  0
ARC
  5
146
  8
DATA
  6
CONTINUOUS
 62
     7
 10
-419.75
 20
-889.7395833333335
 30
0.0
 40
10.26041666666652
 50
270.0
 51
314.9588687942069
  0
LINE
  5
147
  8
DATA
  6
CONTINUOUS
 62
     7
 10
-580.25
 20
-900.0
 30
0.0
 11
-419.75
 21
-900.0
 31
0.0
  0
LINE
  5
148
  8
DATA
  6
CONTINUOUS
 62
     7
 10
-590.0
 20
-881.0
 30
0.0
 11
-587.0
 21
-862.0
 31
0.0
  0
LINE
  5
149
  8
DATA
  6
CONTINUOUS
 62
     7
 10
-410.0
 20
-881.0
 30
0.0
 11
-413.0
 21
-862.0
 31
0.0
  0
LINE
  5
14A
  8
DATA
  6
CONTINUOUS
 62
     7
 10
-587.0
 20
-862.0
 30
0.0
 11
-413.0
 21
-862.0
 31
0.0
  0
LINE
  5
14B
  8
DATA
  6
CONTINUOUS
 62
     7
 10
-589.9848737288662
 20
-1073.35
 30
0.0
 11
-747.7722547155323
 21
-1073.35
 31
0.0
  0
LINE
  5
14C
  8
DATA
  6
CONTINUOUS
 62
     7
 10
-589.9848737288662
 20
-1076.65
 30
0.0
 11
-752.2277452844678
 21
-1076.65
 31
0.0
  0
ARC
  5
14D
  8
DATA
  6
CONTINUOUS
 62
     7
 10
-742.2302637093803
 20
-1087.819192672255
 30
0.0
 40
14.99001343542301
 50
121.2201306816681
 51
234.350233035824
  0
ARC
  5
14E
  8
DATA
  6
CONTINUOUS
 62
     7
 10
-757.7697362906197
 20
-1062.180807327745
 30
0.0
 40
14.9900134354234
 50
301.2201306816672
 51
54.35023303582298
  0
CIRCLE
  5
14F
  8
DATA
  6
CONTINUOUS
 62
     7
 10
-500.0
 20
-1075.0
 30
0.0
 40
90.00000000000006
  0
CIRCLE
  5
150
  8
DATA
  6
CONTINUOUS
 62
     7
 10
-500.0
 20
-1075.0
 30
0.0
 40
87.0
  0
CIRCLE
  5
151
  8
DATA
  6
CONTINUOUS
 62
     7
 10
-500.0
 20
-1075.0
 30
0.0
 40
5.099999999999909
  0
CIRCLE
  5
152
  8
DATA
  6
CONTINUOUS
 62
     7
 10
-498.0
 20
-1075.0
 30
0.0
 40
19.5
  0
CIRCLE
  5
153
  8
DATA
  6
CONTINUOUS
 62
     7
 10
-498.0
 20
-1075.0
 30
0.0
 40
21.0
  0
ARC
  5
154
  8
DATA
  6
CONTINUOUS
 62
     7
 10
-901.2218608725751
 20
-869.7158369591004
 30
0.0
 40
1.793333838632449
 50
77.66889163359619
 51
94.11030905155054
  0
ARC
  5
155
  8
DATA
  6
CONTINUOUS
 62
     7
 10
-912.3719207800855
 20
-863.7749809883128
 30
0.0
 40
0.7285407330893404
 50
88.28460140441608
 51
178.1750791526449
  0
ARC
  5
156
  8
DATA
  6
CONTINUOUS
 62
     7
 10
-912.4536492617422
 20
-864.5105790944531
 30
0.0
 40
0.6647009207048087
 50
193.4602279726285
 51
278.961177147116
  0
ARC
  5
157
  8
DATA
  6
CONTINUOUS
 62
     7
 10
-912.4063193661173
 20
-867.1325184427947
 30
0.0
 40
0.6970166677740012
 50
85.3746508878657
 51
174.4699720824061
  0
ARC
  5
158
  8
DATA
  6
CONTINUOUS
 62
     7
 10
-912.389361689125
 20
-866.3580751842219
 30
0.0
 40
1.633265246842528
 50
252.5024284293461
 51
271.3770317155647
  0
ARC
  5
159
  8
DATA
  6
CONTINUOUS
 62
     7
 10
-912.6921218843969
 20
-867.3649787566585
 30
0.0
 40
0.5820900359384172
 50
230.464423447275
 51
251.1252784596406
  0
ARC
  5
15A
  8
DATA
  6
CONTINUOUS
 62
     7
 10
-912.9970850926852
 20
-867.7344622958378
 30
0.0
 40
0.1030069073162532
 50
179.9996963873333
 51
230.4639786948819
  0
ARC
  5
15B
  8
DATA
  6
CONTINUOUS
 62
     7
 10
-912.3719207800855
 20
-856.9250190116875
 30
0.0
 40
0.7285407330891714
 50
181.8249208473551
 51
271.7153985955839
  0
ARC
  5
15C
  8
DATA
  6
CONTINUOUS
 62
     7
 10
-912.4536492617422
 20
-856.1894209055472
 30
0.0
 40
0.6647009207049019
 50
81.038822852884
 51
166.5397720273715
  0
ARC
  5
15D
  8
DATA
  6
CONTINUOUS
 62
     7
 10
-912.4063193661173
 20
-853.5674815572056
 30
0.0
 40
0.697016667774018
 50
185.5300279175939
 51
274.6253491121343
  0
LINE
  5
15E
  8
DATA
  6
CONTINUOUS
 62
     7
 10
-757.7722547155299
 20
-858.7
 30
0.0
 11
-879.0
 21
-858.7
 31
0.0
  0
LINE
  5
15F
  8
DATA
  6
CONTINUOUS
 62
     7
 10
-961.9000000000001
 20
-851.3000000000002
 30
0.0
 11
-944.9000000000001
 21
-851.3000000000002
 31
0.0
  0
LINE
  5
160
  8
DATA
  6
CONTINUOUS
 62
     7
 10
-944.9000000000001
 20
-869.4000000000001
 30
0.0
 11
-961.9000000000001
 21
-869.4000000000001
 31
0.0
  0
LINE
  5
161
  8
DATA
  6
CONTINUOUS
 62
     7
 10
-914.100066
 20
-869.84974975
 30
0.0
 11
-907.4510245
 21
-869.3848037500002
 31
0.0
  0
LINE
  5
162
  8
DATA
  6
CONTINUOUS
 62
     7
 10
-914.100066
 20
-869.3848037500002
 30
0.0
 11
-903.938447
 21
-869.3848037500002
 31
0.0
  0
LINE
  5
163
  8
DATA
  6
CONTINUOUS
 62
     7
 10
-914.100066
 20
-851.3151962500001
 30
0.0
 11
-903.938447
 21
-851.3151962500001
 31
0.0
  0
LINE
  5
164
  8
DATA
  6
CONTINUOUS
 62
     7
 10
-914.100066
 20
-850.8502497500001
 30
0.0
 11
-907.4510245
 21
-851.3151962500001
 31
0.0
  0
ARC
  5
165
  8
DATA
  6
CONTINUOUS
 62
     7
 10
-880.4999605
 20
-856.7900247500002
 30
0.0
 40
1.499960500000043
 50
0.0
 51
81.99999999999915
  0
ARC
  5
166
  8
DATA
  6
CONTINUOUS
 62
     7
 10
-880.4999605
 20
-863.9099752500001
 30
0.0
 40
1.499960499999921
 50
278.0000000000009
 51
0.0
  0
LINE
  5
167
  8
DATA
  6
CONTINUOUS
 62
     7
 10
-879.0
 20
-863.9099752500001
 30
0.0
 11
-879.0
 21
-856.7900247500002
 31
0.0
  0
LINE
  5
168
  8
DATA
  6
CONTINUOUS
 62
     7
 10
-900.1004345
 20
-852.4453182500001
 30
0.0
 11
-900.1004345
 21
-860.34999975
 31
0.0
  0
LINE
  5
169
  8
DATA
  6
CONTINUOUS
 62
     7
 10
-900.1004345
 20
-868.4410887500001
 30
0.0
 11
-900.1004345
 21
-852.2740697500001
 31
0.0
  0
ARC
  5
16A
  8
DATA
  6
CONTINUOUS
 62
     7
 10
-895.499566
 20
-853.2375347500001
 30
0.0
 40
0.4999870000000328
 50
180.0
 51
0.0
  0
ARC
  5
16B
  8
DATA
  6
CONTINUOUS
 62
     7
 10
-887.4997765
 20
-854.3618317500002
 30
0.0
 40
0.4999869999999191
 50
180.0
 51
0.0
  0
ARC
  5
16C
  8
DATA
  6
CONTINUOUS
 62
     7
 10
-883.4998815
 20
-854.9239802500001
 30
0.0
 40
0.4999870000000328
 50
180.0
 51
0.0
  0
LINE
  5
16D
  8
DATA
  6
CONTINUOUS
 62
     7
 10
-882.999895
 20
-854.9239802500001
 30
0.0
 11
-880.2912065
 21
-855.3046617500002
 31
0.0
  0
ARC
  5
16E
  8
DATA
  6
CONTINUOUS
 62
     7
 10
-885.499829
 20
-854.6429062500001
 30
0.0
 40
0.4999870000000328
 50
180.0
 51
0.0
  0
ARC
  5
16F
  8
DATA
  6
CONTINUOUS
 62
     7
 10
-884.4998555
 20
-854.6429062500001
 30
0.0
 40
0.4999869999999191
 50
0.0
 51
180.0
  0
LINE
  5
170
  8
DATA
  6
CONTINUOUS
 62
     7
 10
-883.9998685
 20
-854.9239802500001
 30
0.0
 11
-883.9998685
 21
-854.6429062500001
 31
0.0
  0
ARC
  5
171
  8
DATA
  6
CONTINUOUS
 62
     7
 10
-886.499803
 20
-854.3618317500002
 30
0.0
 40
0.4999870000000328
 50
0.0
 51
180.0
  0
LINE
  5
172
  8
DATA
  6
CONTINUOUS
 62
     7
 10
-885.999816
 20
-854.6429062500001
 30
0.0
 11
-885.999816
 21
-854.3618317500002
 31
0.0
  0
ARC
  5
173
  8
DATA
  6
CONTINUOUS
 62
     7
 10
-891.499671
 20
-853.79968325
 30
0.0
 40
0.4999869999999191
 50
180.0
 51
0.0
  0
ARC
  5
174
  8
DATA
  6
CONTINUOUS
 62
     7
 10
-890.4996975
 20
-853.79968325
 30
0.0
 40
0.4999870000000328
 50
0.0
 51
180.0
  0
ARC
  5
175
  8
DATA
  6
CONTINUOUS
 62
     7
 10
-889.499724
 20
-854.08075725
 30
0.0
 40
0.4999869999999191
 50
180.0
 51
0.0
  0
ARC
  5
176
  8
DATA
  6
CONTINUOUS
 62
     7
 10
-888.49975
 20
-854.08075725
 30
0.0
 40
0.4999869999999191
 50
0.0
 51
180.0
  0
LINE
  5
177
  8
DATA
  6
CONTINUOUS
 62
     7
 10
-887.9997635
 20
-854.3618317500002
 30
0.0
 11
-887.9997635
 21
-854.08075725
 31
0.0
  0
LINE
  5
178
  8
DATA
  6
CONTINUOUS
 62
     7
 10
-889.9997105
 20
-854.08075725
 30
0.0
 11
-889.9997105
 21
-853.79968325
 31
0.0
  0
LINE
  5
179
  8
DATA
  6
CONTINUOUS
 62
     7
 10
-891.999658
 20
-853.79968325
 30
0.0
 11
-891.999658
 21
-853.5186087500001
 31
0.0
  0
ARC
  5
17A
  8
DATA
  6
CONTINUOUS
 62
     7
 10
-893.4996185
 20
-853.5186087500001
 30
0.0
 40
0.4999870000000328
 50
180.0
 51
0.0
  0
ARC
  5
17B
  8
DATA
  6
CONTINUOUS
 62
     7
 10
-892.499645
 20
-853.5186087500001
 30
0.0
 40
0.4999870000000328
 50
0.0
 51
180.0
  0
ARC
  5
17C
  8
DATA
  6
CONTINUOUS
 62
     7
 10
-894.4995925
 20
-853.2375347500001
 30
0.0
 40
0.4999869999999191
 50
0.0
 51
180.0
  0
LINE
  5
17D
  8
DATA
  6
CONTINUOUS
 62
     7
 10
-893.9996055
 20
-853.5186087500001
 30
0.0
 11
-893.9996055
 21
-853.2375347500001
 31
0.0
  0
LINE
  5
17E
  8
DATA
  6
CONTINUOUS
 62
     7
 10
-896.429955
 20
-852.4613392500003
 30
0.0
 11
-898.9994735
 21
-852.1002169735775
 31
0.0
  0
ARC
  5
17F
  8
DATA
  6
CONTINUOUS
 62
     7
 10
-896.4995395
 20
-852.9564602500002
 30
0.0
 40
0.4999870000000328
 50
0.0
 51
81.99999999999876
  0
LINE
  5
180
  8
DATA
  6
CONTINUOUS
 62
     7
 10
-901.3504015
 20
-851.6611207500002
 30
0.0
 11
-903.938447
 21
-851.3151962500001
 31
0.0
  0
ARC
  5
181
  8
DATA
  6
CONTINUOUS
 62
     7
 10
-895.499566
 20
-867.4624652500002
 30
0.0
 40
0.4999869999999191
 50
0.0
 51
180.0
  0
ARC
  5
182
  8
DATA
  6
CONTINUOUS
 62
     7
 10
-887.4997765
 20
-866.3381682500001
 30
0.0
 40
0.4999870000000328
 50
0.0
 51
180.0
  0
ARC
  5
183
  8
DATA
  6
CONTINUOUS
 62
     7
 10
-883.4998815
 20
-865.7760197500002
 30
0.0
 40
0.4999870000000328
 50
0.0
 51
180.0
  0
LINE
  5
184
  8
DATA
  6
CONTINUOUS
 62
     7
 10
-882.999895
 20
-865.7760197500002
 30
0.0
 11
-880.2912065
 21
-865.3953382500001
 31
0.0
  0
ARC
  5
185
  8
DATA
  6
CONTINUOUS
 62
     7
 10
-885.499829
 20
-866.0570937500001
 30
0.0
 40
0.4999870000000328
 50
0.0
 51
180.0
  0
ARC
  5
186
  8
DATA
  6
CONTINUOUS
 62
     7
 10
-884.4998555
 20
-866.0570937500001
 30
0.0
 40
0.4999870000000328
 50
180.0
 51
0.0
  0
LINE
  5
187
  8
DATA
  6
CONTINUOUS
 62
     7
 10
-883.9998685
 20
-865.7760197500002
 30
0.0
 11
-883.9998685
 21
-866.0570937500001
 31
0.0
  0
ARC
  5
188
  8
DATA
  6
CONTINUOUS
 62
     7
 10
-886.499803
 20
-866.3381682500001
 30
0.0
 40
0.4999869999999191
 50
180.0
 51
0.0
  0
LINE
  5
189
  8
DATA
  6
CONTINUOUS
 62
     7
 10
-885.999816
 20
-866.0570937500001
 30
0.0
 11
-885.999816
 21
-866.3381682500001
 31
0.0
  0
ARC
  5
18A
  8
DATA
  6
CONTINUOUS
 62
     7
 10
-891.499671
 20
-866.9003167500002
 30
0.0
 40
0.4999870000000328
 50
0.0
 51
180.0
  0
ARC
  5
18B
  8
DATA
  6
CONTINUOUS
 62
     7
 10
-889.499724
 20
-866.6192422500001
 30
0.0
 40
0.4999870000000328
 50
0.0
 51
180.0
  0
ARC
  5
18C
  8
DATA
  6
CONTINUOUS
 62
     7
 10
-888.49975
 20
-866.6192422500001
 30
0.0
 40
0.4999870000000328
 50
180.0
 51
0.0
  0
LINE
  5
18D
  8
DATA
  6
CONTINUOUS
 62
     7
 10
-887.9997635
 20
-866.6192422500001
 30
0.0
 11
-887.9997635
 21
-866.3381682500001
 31
0.0
  0
ARC
  5
18E
  8
DATA
  6
CONTINUOUS
 62
     7
 10
-890.4996975
 20
-866.9003167500002
 30
0.0
 40
0.4999870000000328
 50
180.0
 51
0.0
  0
LINE
  5
18F
  8
DATA
  6
CONTINUOUS
 62
     7
 10
-889.9997105
 20
-866.6192422500001
 30
0.0
 11
-889.9997105
 21
-866.9003167500002
 31
0.0
  0
ARC
  5
190
  8
DATA
  6
CONTINUOUS
 62
     7
 10
-893.4996185
 20
-867.1813907500002
 30
0.0
 40
0.4999870000000328
 50
0.0
 51
180.0
  0
ARC
  5
191
  8
DATA
  6
CONTINUOUS
 62
     7
 10
-892.499645
 20
-867.1813907500002
 30
0.0
 40
0.4999870000000328
 50
180.0
 51
0.0
  0
LINE
  5
192
  8
DATA
  6
CONTINUOUS
 62
     7
 10
-891.999658
 20
-866.9003167500002
 30
0.0
 11
-891.999658
 21
-867.1813907500002
 31
0.0
  0
ARC
  5
193
  8
DATA
  6
CONTINUOUS
 62
     7
 10
-894.4995925
 20
-867.4624652500002
 30
0.0
 40
0.4999870000000328
 50
180.0
 51
0.0
  0
LINE
  5
194
  8
DATA
  6
CONTINUOUS
 62
     7
 10
-893.9996055
 20
-867.1813907500002
 30
0.0
 11
-893.9996055
 21
-867.4624652500002
 31
0.0
  0
ARC
  5
195
  8
DATA
  6
CONTINUOUS
 62
     7
 10
-896.4995395
 20
-867.7435397500001
 30
0.0
 40
0.4999870000000113
 50
278.0000000000013
 51
0.0
  0
LINE
  5
196
  8
DATA
  6
CONTINUOUS
 62
     7
 10
-900.1004345
 20
-868.2546812500002
 30
0.0
 11
-900.1004345
 21
-860.34999975
 31
0.0
  0
LINE
  5
197
  8
DATA
  6
CONTINUOUS
 62
     7
 10
-900.1004345
 20
-868.4259302500002
 30
0.0
 11
-900.1004345
 21
-860.34999975
 31
0.0
  0
LINE
  5
198
  8
DATA
  6
CONTINUOUS
 62
     7
 10
-895.999553
 20
-867.4624652500002
 30
0.0
 11
-895.999553
 21
-867.7435397500001
 31
0.0
  0
LINE
  5
199
  8
DATA
  6
CONTINUOUS
 62
     7
 10
-896.429955
 20
-868.23866075
 30
0.0
 11
-898.9994735
 21
-868.5997830264228
 31
0.0
  0
ARC
  5
19A
  8
DATA
  6
CONTINUOUS
 62
     7
 10
-900.300429
 20
-868.4259302500002
 30
0.0
 40
0.1999944999999631
 50
314.5030060000063
 51
0.0
  0
LINE
  5
19B
  8
DATA
  6
CONTINUOUS
 62
     7
 10
-901.3504015
 20
-869.03887925
 30
0.0
 11
-903.938447
 21
-869.3848037500002
 31
0.0
  0
LINE
  5
19C
  8
DATA
  6
CONTINUOUS
 62
     7
 10
-914.100066
 20
-850.8502497500001
 30
0.0
 11
-916.6
 21
-850.8502497500001
 31
0.0
  0
LINE
  5
19D
  8
DATA
  6
CONTINUOUS
 62
     7
 10
-914.100066
 20
-869.84974975
 30
0.0
 11
-916.6
 21
-869.84974975
 31
0.0
  0
LINE
  5
19E
  8
DATA
  6
CONTINUOUS
 62
     7
 10
-901.3504015
 20
-867.92711575
 30
0.0
 11
-914.100066
 21
-869.3848037500002
 31
0.0
  0
LINE
  5
19F
  8
DATA
  6
CONTINUOUS
 62
     7
 10
-901.472947
 20
-861.5939452500002
 30
0.0
 11
-914.100066
 21
-860.34999975
 31
0.0
  0
LINE
  5
1A0
  8
DATA
  6
CONTINUOUS
 62
     7
 10
-901.472947
 20
-859.1060547500001
 30
0.0
 11
-914.100066
 21
-860.34999975
 31
0.0
  0
LINE
  5
1A1
  8
DATA
  6
CONTINUOUS
 62
     7
 10
-901.3504015
 20
-852.7728842500003
 30
0.0
 11
-914.100066
 21
-851.3151962500001
 31
0.0
  0
ARC
  5
1A2
  8
DATA
  6
CONTINUOUS
 62
     7
 10
-901.3504015
 20
-860.34999975
 30
0.0
 40
1.2499670000002
 50
264.3737427010437
 51
95.62627099999882
  0
LINE
  5
1A3
  8
DATA
  6
CONTINUOUS
 62
     7
 10
-890.9996845000001
 20
-866.9003197500001
 30
0.0
 11
-890.9996845000001
 21
-853.79968325
 31
0.0
  0
LINE
  5
1A4
  8
DATA
  6
CONTINUOUS
 62
     7
 10
-892.9996315
 20
-867.1813937500001
 30
0.0
 11
-892.9996315
 21
-853.5186087500001
 31
0.0
  0
LINE
  5
1A5
  8
DATA
  6
CONTINUOUS
 62
     7
 10
-889.9997105
 20
-866.6192422500001
 30
0.0
 11
-889.9997105
 21
-854.08075725
 31
0.0
  0
LINE
  5
1A6
  8
DATA
  6
CONTINUOUS
 62
     7
 10
-891.999658
 20
-866.9003167500002
 30
0.0
 11
-891.999658
 21
-853.79968325
 31
0.0
  0
LINE
  5
1A7
  8
DATA
  6
CONTINUOUS
 62
     7
 10
-893.9996055
 20
-867.1813907500002
 30
0.0
 11
-893.9996055
 21
-853.5186087500001
 31
0.0
  0
LINE
  5
1A8
  8
DATA
  6
CONTINUOUS
 62
     7
 10
-882.999895
 20
-865.77602275
 30
0.0
 11
-882.999895
 21
-854.9239802500001
 31
0.0
  0
LINE
  5
1A9
  8
DATA
  6
CONTINUOUS
 62
     7
 10
-884.999842
 20
-866.05709675
 30
0.0
 11
-884.999842
 21
-854.6429062500001
 31
0.0
  0
LINE
  5
1AA
  8
DATA
  6
CONTINUOUS
 62
     7
 10
-886.9997895
 20
-866.3381712500002
 30
0.0
 11
-886.9997895
 21
-854.3618317500002
 31
0.0
  0
LINE
  5
1AB
  8
DATA
  6
CONTINUOUS
 62
     7
 10
-888.999737
 20
-866.6192452500002
 30
0.0
 11
-888.999737
 21
-854.08075725
 31
0.0
  0
LINE
  5
1AC
  8
DATA
  6
CONTINUOUS
 62
     7
 10
-883.9998685
 20
-865.7760197500002
 30
0.0
 11
-883.9998685
 21
-854.9239802500001
 31
0.0
  0
LINE
  5
1AD
  8
DATA
  6
CONTINUOUS
 62
     7
 10
-885.999816
 20
-866.0570937500001
 30
0.0
 11
-885.999816
 21
-854.6429062500001
 31
0.0
  0
LINE
  5
1AE
  8
DATA
  6
CONTINUOUS
 62
     7
 10
-887.9997635
 20
-866.3381682500001
 30
0.0
 11
-887.9997635
 21
-854.3618317500002
 31
0.0
  0
LINE
  5
1AF
  8
DATA
  6
CONTINUOUS
 62
     7
 10
-894.999579
 20
-867.46246825
 30
0.0
 11
-894.999579
 21
-853.2375347500001
 31
0.0
  0
LINE
  5
1B0
  8
DATA
  6
CONTINUOUS
 62
     7
 10
-895.999553
 20
-867.4624652500002
 30
0.0
 11
-895.9995524999999
 21
-852.9564602500002
 31
0.0
  0
LINE
  5
1B1
  8
DATA
  6
CONTINUOUS
 62
     7
 10
-903.6580255
 20
-853.5485217500002
 30
0.0
 11
-912.350112
 21
-852.7091312500002
 31
0.0
  0
LINE
  5
1B2
  8
DATA
  6
CONTINUOUS
 62
     7
 10
-903.6580255
 20
-854.1648102500001
 30
0.0
 11
-912.350112
 21
-854.2622282500001
 31
0.0
  0
LINE
  5
1B3
  8
DATA
  6
CONTINUOUS
 62
     7
 10
-903.6580255
 20
-856.3753797500001
 30
0.0
 11
-912.350112
 21
-855.5328332500001
 31
0.0
  0
LINE
  5
1B4
  8
DATA
  6
CONTINUOUS
 62
     7
 10
-903.938447
 20
-853.5214417500001
 30
0.0
 11
-903.938447
 21
-852.4769892500001
 31
0.0
  0
LINE
  5
1B5
  8
DATA
  6
CONTINUOUS
 62
     7
 10
-903.938447
 20
-856.3481977500003
 30
0.0
 11
-903.938447
 21
-854.16795325
 31
0.0
  0
LINE
  5
1B6
  8
DATA
  6
CONTINUOUS
 62
     7
 10
-903.938447
 20
-867.1785582500002
 30
0.0
 11
-903.938447
 21
-868.2230107500002
 31
0.0
  0
LINE
  5
1B7
  8
DATA
  6
CONTINUOUS
 62
     7
 10
-903.6580255
 20
-863.4832187500001
 30
0.0
 11
-912.350112
 21
-863.0467667500002
 31
0.0
  0
LINE
  5
1B8
  8
DATA
  6
CONTINUOUS
 62
     7
 10
-903.6580255
 20
-864.3246202500002
 30
0.0
 11
-912.350112
 21
-865.1671667500002
 31
0.0
  0
LINE
  5
1B9
  8
DATA
  6
CONTINUOUS
 62
     7
 10
-903.6580255
 20
-866.5351897500002
 30
0.0
 11
-912.350112
 21
-866.4377717500001
 31
0.0
  0
LINE
  5
1BA
  8
DATA
  6
CONTINUOUS
 62
     7
 10
-903.6580255
 20
-867.1514777500001
 30
0.0
 11
-912.350112
 21
-867.9908682500002
 31
0.0
  0
LINE
  5
1BB
  8
DATA
  6
CONTINUOUS
 62
     7
 10
-903.6580255
 20
-857.2167812500002
 30
0.0
 11
-912.350112
 21
-857.6532332500003
 31
0.0
  0
LINE
  5
1BC
  8
DATA
  6
CONTINUOUS
 62
     7
 10
-903.938447
 20
-861.3510597500001
 30
0.0
 11
-903.938447
 21
-863.4691382500002
 31
0.0
  0
LINE
  5
1BD
  8
DATA
  6
CONTINUOUS
 62
     7
 10
-903.938447
 20
-859.3489402500002
 30
0.0
 11
-903.938447
 21
-857.23086175
 31
0.0
  0
LINE
  5
1BE
  8
DATA
  6
CONTINUOUS
 62
     7
 10
-903.938447
 20
-864.3518017500003
 30
0.0
 11
-903.938447
 21
-866.5320467500003
 31
0.0
  0
LINE
  5
1BF
  8
DATA
  6
CONTINUOUS
 62
     7
 10
-913.100092
 20
-856.9482197500001
 30
0.0
 11
-913.100092
 21
-856.0346982500002
 31
0.0
  0
LINE
  5
1C0
  8
DATA
  6
CONTINUOUS
 62
     7
 10
-914.100066
 20
-850.8502497500001
 30
0.0
 11
-914.100066
 21
-869.84974975
 31
0.0
  0
LINE
  5
1C1
  8
DATA
  6
CONTINUOUS
 62
     7
 10
-913.100092
 20
-853.6346512500002
 30
0.0
 11
-913.100092
 21
-852.9655382500002
 31
0.0
  0
LINE
  5
1C2
  8
DATA
  6
CONTINUOUS
 62
     7
 10
-913.100092
 20
-863.7517802500001
 30
0.0
 11
-913.100092
 21
-864.66530175
 31
0.0
  0
LINE
  5
1C3
  8
DATA
  6
CONTINUOUS
 62
     7
 10
-913.100092
 20
-867.0653487500001
 30
0.0
 11
-913.100092
 21
-867.73446175
 31
0.0
  0
ARC
  5
1C4
  8
DATA
  6
CONTINUOUS
 62
     7
 10
-903.6580255
 20
-856.7960805
 30
0.0
 40
0.4207007500001509
 50
270.0
 51
90.0
  0
ARC
  5
1C5
  8
DATA
  6
CONTINUOUS
 62
     7
 10
-903.6580255
 20
-853.8566660000001
 30
0.0
 40
0.3081442499999412
 50
270.0
 51
90.0
  0
ARC
  5
1C6
  8
DATA
  6
CONTINUOUS
 62
     7
 10
-903.6580255
 20
-863.9039195000003
 30
0.0
 40
0.4207007499999236
 50
270.0
 51
90.0
  0
ARC
  5
1C7
  8
DATA
  6
CONTINUOUS
 62
     7
 10
-903.6580255
 20
-866.8433340000001
 30
0.0
 40
0.3081442499999412
 50
270.0
 51
90.0
  0
LINE
  5
1C8
  8
DATA
  6
CONTINUOUS
 62
     7
 10
-898.9994735
 20
-852.1002169735775
 30
0.0
 11
-898.9994735
 21
-868.5997830264228
 31
0.0
  0
LINE
  5
1C9
  8
DATA
  6
CONTINUOUS
 62
     7
 10
-898.9994735
 20
-854.0000000000002
 30
0.0
 11
-900.1004345
 21
-854.0000000000002
 31
0.0
  0
LINE
  5
1CA
  8
DATA
  6
CONTINUOUS
 62
     7
 10
-898.9994735
 20
-866.7
 30
0.0
 11
-900.1004345
 21
-866.7
 31
0.0
  0
POLYLINE
  5
1CB
  8
DATA
  6
CONTINUOUS
 62
     7
 66
     1
 10
0.0
 20
0.0
 30
0.0
 70
     1
  0
VERTEX
  5
435
  8
DATA
  6
CONTINUOUS
 62
     7
 10
-996.4718320000001
 20
-857.2326907500003
 30
0.0
  0
VERTEX
  5
436
  8
DATA
  6
CONTINUOUS
 62
     7
 10
-996.4718320000001
 20
-863.4673092500003
 30
0.0
  0
VERTEX
  5
437
  8
DATA
  6
CONTINUOUS
 62
     7
 10
-998.5500385
 20
-863.4673092500003
 30
0.0
  0
VERTEX
  5
438
  8
DATA
  6
CONTINUOUS
 62
     7
 10
-998.5500385
 20
-857.2326907500003
 30
0.0
  0
SEQEND
  5
48C
  8
DATA
  6
CONTINUOUS
 62
     7
  0
LINE
  5
1D2
  8
DATA
  6
CONTINUOUS
 62
     7
 10
-983.0
 20
-859.3500000000001
 30
0.0
 11
-983.0
 21
-861.3500000000001
 31
0.0
  0
CIRCLE
  5
1D3
  8
DATA
  6
CONTINUOUS
 62
     7
 10
-983.0
 20
-860.3500000000001
 30
0.0
 40
1.75
  0
LINE
  5
1D4
  8
DATA
  6
CONTINUOUS
 62
     7
 10
-984.0
 20
-860.3500000000001
 30
0.0
 11
-982.0
 21
-860.3500000000001
 31
0.0
  0
CIRCLE
  5
1D5
  8
DATA
  6
CONTINUOUS
 62
     7
 10
-1050.0
 20
-860.3500000000001
 30
0.0
 40
9.5
  0
CIRCLE
  5
1D6
  8
DATA
  6
CONTINUOUS
 62
     7
 10
-1053.8
 20
-860.3500000000001
 30
0.0
 40
1.190000000000055
  0
CIRCLE
  5
1D7
  8
DATA
  6
CONTINUOUS
 62
     7
 10
-1050.0
 20
-856.3500000000001
 30
0.0
 40
1.150000000000091
  0
CIRCLE
  5
1D8
  8
DATA
  6
CONTINUOUS
 62
     7
 10
-1050.0
 20
-864.3500000000001
 30
0.0
 40
1.190000000000055
  0
TEXT
  5
1D9
  8
DATA
 62
     7
 10
-1052.842987461063
 20
-856.2074763997397
 30
0.0
 40
1.221630859375
  1
1
 50
270.0
 41
0.7
 72
     1
 11
-1052.232172031376
 21
-856.3500000000001
 31
0.0
 73
     2
  0
TEXT
  5
1DA
  8
DATA
 62
     7
 10
-1052.882987461063
 20
-864.0649527994793
 30
0.0
 40
1.221630859375
  1
2
 50
270.0
 41
0.7
 72
     1
 11
-1052.272172031376
 21
-864.3500000000001
 31
0.0
 73
     2
  0
TEXT
  5
1DB
  8
DATA
 62
     7
 10
-1056.682987461063
 20
-860.0649527994793
 30
0.0
 40
1.221630859375
  1
3
 50
270.0
 41
0.7
 72
     1
 11
-1056.072172031376
 21
-860.3500000000001
 31
0.0
 73
     2
  0
ARC
  5
1DC
  8
DATA
  6
CONTINUOUS
 62
     7
 10
-1050.000000000008
 20
-860.349999999992
 30
0.0
 40
7.700000000011627
 50
322.4462495213078
 51
307.553750478696
  0
ARC
  5
1DD
  8
DATA
  6
CONTINUOUS
 62
     7
 10
-1044.555277784863
 20
-865.7947222151367
 30
0.0
 40
1.00000000000014
 50
221.2768752393323
 51
48.72312476067629
  0
POLYLINE
  5
1DE
  8
DATA
  6
CONTINUOUS
 62
     7
 66
     1
 10
0.0
 20
0.0
 30
0.0
 70
     1
  0
VERTEX
  5
439
  8
DATA
  6
CONTINUOUS
 62
     7
 10
-1000.0
 20
-850.8500000000001
 30
0.0
  0
VERTEX
  5
43A
  8
DATA
  6
CONTINUOUS
 62
     7
 10
-961.9000000000001
 20
-850.8500000000001
 30
0.0
  0
VERTEX
  5
43B
  8
DATA
  6
CONTINUOUS
 62
     7
 10
-961.9000000000001
 20
-869.8500000000001
 30
0.0
  0
VERTEX
  5
43C
  8
DATA
  6
CONTINUOUS
 62
     7
 10
-1000.0
 20
-869.8500000000001
 30
0.0
  0
SEQEND
  5
48D
  8
DATA
  6
CONTINUOUS
 62
     7
  0
POLYLINE
  5
1E5
  8
DATA
  6
CONTINUOUS
 62
     7
 66
     1
 10
0.0
 20
0.0
 30
0.0
 70
     1
  0
VERTEX
  5
43D
  8
DATA
  6
CONTINUOUS
 62
     7
 10
-944.9000000000001
 20
-850.8500000000001
 30
0.0
  0
VERTEX
  5
43E
  8
DATA
  6
CONTINUOUS
 62
     7
 10
-916.6000000000001
 20
-850.8500000000001
 30
0.0
  0
VERTEX
  5
43F
  8
DATA
  6
CONTINUOUS
 62
     7
 10
-916.6000000000001
 20
-869.8500000000001
 30
0.0
  0
VERTEX
  5
440
  8
DATA
  6
CONTINUOUS
 62
     7
 10
-944.9000000000001
 20
-869.8500000000001
 30
0.0
  0
SEQEND
  5
48E
  8
DATA
  6
CONTINUOUS
 62
     7
  0
ARC
  5
1EC
  8
DATA
  6
CONTINUOUS
 62
     7
 10
-912.389361689125
 20
-854.3419248157784
 30
0.0
 40
1.63326524684241
 50
88.62296828443527
 51
107.4975715706539
  0
ARC
  5
1ED
  8
DATA
  6
CONTINUOUS
 62
     7
 10
-912.6921218843969
 20
-853.3350212433418
 30
0.0
 40
0.5820900359383767
 50
108.8747215403595
 51
129.535576552725
  0
ARC
  5
1EE
  8
DATA
  6
CONTINUOUS
 62
     7
 10
-912.9970850926852
 20
-852.9655377041624
 30
0.0
 40
0.1030069073162852
 50
129.5360213051181
 51
180.0003036126667
  0
ARC
  5
1EF
  8
DATA
  6
CONTINUOUS
 62
     7
 10
-901.2996169785611
 20
-867.1932865487031
 30
0.0
 40
1.846291278942276
 50
268.423810036992
 51
296.8217215403827
  0
ARC
  5
1F0
  8
DATA
  6
CONTINUOUS
 62
     7
 10
-900.8957114237877
 20
-868.0471346819388
 30
0.0
 40
0.9023972977573611
 50
298.3977207868643
 51
322.5427323647654
  0
ARC
  5
1F1
  8
DATA
  6
CONTINUOUS
 62
     7
 10
-900.3644764573296
 20
-868.4033793837459
 30
0.0
 40
0.2670984293857937
 50
313.8666419611324
 51
41.22486910355633
  0
ARC
  5
1F2
  8
DATA
  6
CONTINUOUS
 62
     7
 10
-900.9625104163765
 20
-869.2778583321622
 30
0.0
 40
1.319786324526725
 50
52.7463082586096
 51
84.62474391211747
  0
ARC
  5
1F3
  8
DATA
  6
CONTINUOUS
 62
     7
 10
-901.2218608725751
 20
-850.9841630408998
 30
0.0
 40
1.793333838632557
 50
265.8896909484495
 51
282.3311083664038
  0
ARC
  5
1F4
  8
DATA
  6
CONTINUOUS
 62
     7
 10
-900.300429
 20
-852.2740697500001
 30
0.0
 40
0.1999945000000025
 50
0.0
 51
45.49699399999372
  0
ARC
  5
1F5
  8
DATA
  6
CONTINUOUS
 62
     7
 10
-901.2996169785611
 20
-853.5067134512972
 30
0.0
 40
1.846291278942422
 50
63.17827845961726
 51
91.57618996300803
  0
ARC
  5
1F6
  8
DATA
  6
CONTINUOUS
 62
     7
 10
-900.8957114237877
 20
-852.6528653180615
 30
0.0
 40
0.9023972977573352
 50
37.45726763523464
 51
61.6022792131357
  0
ARC
  5
1F7
  8
DATA
  6
CONTINUOUS
 62
     7
 10
-900.3644764573296
 20
-852.2966206162544
 30
0.0
 40
0.2670984293857133
 50
318.7751308964437
 51
46.13335803886769
  0
ARC
  5
1F8
  8
DATA
  6
CONTINUOUS
 62
     7
 10
-900.9625104163765
 20
-851.4221416678381
 30
0.0
 40
1.319786324526853
 50
275.3752560878825
 51
307.2536917413904
  0
TEXT
  5
1F9
  8
DATA
 62
     7
 10
-974.1087528935186
 20
-858.0758443754473
 30
0.0
 40
2.714735243055556
  1
DPA
 41
0.7
 72
     1
 11
-971.575
 21
-856.7184767539195
 31
0.0
 73
     2
  0
TEXT
  5
1FA
  8
DATA
 62
     7
 10
-979.9553876953125
 20
-861.5348795572918
 30
0.0
 40
1.900314670138889
  1
PHANTOM POWER
 41
0.7
 72
     1
 11
-971.575
 21
-860.5847222222224
 31
0.0
 73
     2
  0
TEXT
  5
1FB
  8
DATA
 62
     7
 10
-978.4034640480324
 20
-864.0043240017362
 30
0.0
 40
1.900314670138889
  1
ADAPTER FOR
 41
0.7
 72
     1
 11
-971.575
 21
-863.0541666666668
 31
0.0
 73
     2
  0
TEXT
  5
1FC
  8
DATA
 62
     7
 10
-979.4232995876737
 20
-866.4737684461807
 30
0.0
 40
1.900314670138889
  1
9 TO 52 VOLTS
 41
0.7
 72
     1
 11
-971.575
 21
-865.5236111111112
 31
0.0
 73
     2
  0
LINE
  5
1FD
  8
DATA
  6
CONTINUOUS
 62
     7
 10
-762.2277452844654
 20
-862.0000000000002
 30
0.0
 11
-879.0
 21
-862.0000000000002
 31
0.0
  0
ARC
  5
1FE
  8
DATA
  6
CONTINUOUS
 62
     7
 10
-752.230263709378
 20
-873.1691926722551
 30
0.0
 40
14.99001343542321
 50
121.2201306816676
 51
234.3502330358235
  0
ARC
  5
1FF
  8
DATA
  6
CONTINUOUS
 62
     7
 10
-767.7697362906174
 20
-847.5308073277452
 30
0.0
 40
14.99001343542321
 50
301.2201306816676
 51
54.35023303582386
  0
ARC
  5
200
  8
DATA
  6
CONTINUOUS
 62
     7
 10
-742.230263709378
 20
-873.1691926722551
 30
0.0
 40
14.99001343542321
 50
121.2201306816676
 51
234.3502330358235
  0
ARC
  5
201
  8
DATA
  6
CONTINUOUS
 62
     7
 10
-757.7697362906174
 20
-847.5308073277452
 30
0.0
 40
14.99001343542321
 50
301.2201306816676
 51
54.35023303582386
  0
LINE
  5
202
  8
DATA
  6
CONTINUOUS
 62
     7
 10
-511.75
 20
-858.7
 30
0.0
 11
-747.7722547155298
 21
-858.7
 31
0.0
  0
LINE
  5
203
  8
DATA
  6
CONTINUOUS
 62
     7
 10
-587.0
 20
-862.0
 30
0.0
 11
-752.2277452844653
 21
-862.0
 31
0.0
  0
LINE
  5
204
  8
DATA
  6
CONTINUOUS
 62
     7
 10
-506.5452272687814
 20
801.6499999999999
 30
0.0
 11
-697.7722547155323
 21
801.6499999999999
 31
0.0
  0
LINE
  5
205
  8
DATA
  6
CONTINUOUS
 62
     7
 10
-506.5452272687814
 20
798.3499999999999
 30
0.0
 11
-702.2277452844678
 21
798.3499999999999
 31
0.0
  0
ARC
  5
206
  8
DATA
  6
CONTINUOUS
 62
     7
 10
-692.2302637093803
 20
787.180807327745
 30
0.0
 40
14.99001343542301
 50
121.2201306816681
 51
234.350233035824
  0
ARC
  5
207
  8
DATA
  6
CONTINUOUS
 62
     7
 10
-707.7697362906197
 20
812.819192672255
 30
0.0
 40
14.9900134354234
 50
301.2201306816672
 51
54.35023303582298
  0
ARC
  5
208
  8
DATA
  6
CONTINUOUS
 62
     7
 10
-504.6666666666666
 20
519.0
 30
0.0
 40
0.4166666666667561
 50
286.2602047083095
 51
73.73979529169054
  0
ARC
  5
209
  8
DATA
  6
CONTINUOUS
 62
     7
 10
-504.6666666666666
 20
514.5
 30
0.0
 40
0.4166666666667561
 50
286.2602047083095
 51
73.73979529169054
  0
ARC
  5
20A
  8
DATA
  6
CONTINUOUS
 62
     7
 10
-495.3333333333334
 20
519.0
 30
0.0
 40
0.4166666666667561
 50
106.2602047083095
 51
253.7397952916905
  0
ARC
  5
20B
  8
DATA
  6
CONTINUOUS
 62
     7
 10
-495.3333333333334
 20
514.5
 30
0.0
 40
0.4166666666667561
 50
106.2602047083095
 51
253.7397952916905
  0
LINE
  5
20C
  8
DATA
  6
CONTINUOUS
 62
     7
 10
-504.0
 20
523.0
 30
0.0
 11
-504.0
 21
580.5
 31
0.0
  0
LINE
  5
20D
  8
DATA
  6
CONTINUOUS
 62
     7
 10
-496.0
 20
523.8000000000001
 30
0.0
 11
-504.0
 21
523.0
 31
0.0
  0
LINE
  5
20E
  8
DATA
  6
CONTINUOUS
 62
     7
 10
-496.0
 20
580.5
 30
0.0
 11
-496.0
 21
523.0
 31
0.0
  0
LINE
  5
20F
  8
DATA
  6
CONTINUOUS
 62
     7
 10
-496.0
 20
526.8000000000001
 30
0.0
 11
-504.0
 21
526.0
 31
0.0
  0
LINE
  5
210
  8
DATA
  6
CONTINUOUS
 62
     7
 10
-496.0
 20
529.8000000000001
 30
0.0
 11
-504.0
 21
529.0
 31
0.0
  0
LINE
  5
211
  8
DATA
  6
CONTINUOUS
 62
     7
 10
-496.0
 20
532.8000000000001
 30
0.0
 11
-504.0
 21
532.0
 31
0.0
  0
LINE
  5
212
  8
DATA
  6
CONTINUOUS
 62
     7
 10
-496.0
 20
535.8
 30
0.0
 11
-504.0
 21
535.0
 31
0.0
  0
LINE
  5
213
  8
DATA
  6
CONTINUOUS
 62
     7
 10
-496.0
 20
538.8
 30
0.0
 11
-504.0
 21
538.0
 31
0.0
  0
LINE
  5
214
  8
DATA
  6
CONTINUOUS
 62
     7
 10
-496.0
 20
541.8
 30
0.0
 11
-504.0
 21
541.0
 31
0.0
  0
LINE
  5
215
  8
DATA
  6
CONTINUOUS
 62
     7
 10
-496.0
 20
544.8
 30
0.0
 11
-504.0
 21
544.0
 31
0.0
  0
LINE
  5
216
  8
DATA
  6
CONTINUOUS
 62
     7
 10
-496.0
 20
547.8
 30
0.0
 11
-504.0
 21
547.0
 31
0.0
  0
LINE
  5
217
  8
DATA
  6
CONTINUOUS
 62
     7
 10
-496.0
 20
550.8
 30
0.0
 11
-504.0
 21
550.0
 31
0.0
  0
LINE
  5
218
  8
DATA
  6
CONTINUOUS
 62
     7
 10
-496.0
 20
553.8
 30
0.0
 11
-504.0
 21
553.0
 31
0.0
  0
LINE
  5
219
  8
DATA
  6
CONTINUOUS
 62
     7
 10
-496.0
 20
556.8
 30
0.0
 11
-504.0
 21
556.0
 31
0.0
  0
LINE
  5
21A
  8
DATA
  6
CONTINUOUS
 62
     7
 10
-496.0
 20
559.8
 30
0.0
 11
-504.0
 21
559.0
 31
0.0
  0
LINE
  5
21B
  8
DATA
  6
CONTINUOUS
 62
     7
 10
-496.0
 20
562.8
 30
0.0
 11
-504.0
 21
562.0
 31
0.0
  0
LINE
  5
21C
  8
DATA
  6
CONTINUOUS
 62
     7
 10
-496.0
 20
565.8
 30
0.0
 11
-504.0
 21
565.0
 31
0.0
  0
LINE
  5
21D
  8
DATA
  6
CONTINUOUS
 62
     7
 10
-496.0
 20
568.8
 30
0.0
 11
-504.0
 21
568.0
 31
0.0
  0
LINE
  5
21E
  8
DATA
  6
CONTINUOUS
 62
     7
 10
-496.0
 20
571.8
 30
0.0
 11
-504.0
 21
571.0
 31
0.0
  0
LINE
  5
21F
  8
DATA
  6
CONTINUOUS
 62
     7
 10
-496.0
 20
574.8
 30
0.0
 11
-504.0
 21
574.0
 31
0.0
  0
LINE
  5
220
  8
DATA
  6
CONTINUOUS
 62
     7
 10
-496.0
 20
577.8
 30
0.0
 11
-504.0
 21
577.0
 31
0.0
  0
LINE
  5
221
  8
DATA
  6
CONTINUOUS
 62
     7
 10
-498.9999999999997
 20
580.5
 30
0.0
 11
-504.0
 21
580.0
 31
0.0
  0
POLYLINE
  5
222
  8
DATA
  6
CONTINUOUS
 62
     7
 66
     1
 10
0.0
 20
0.0
 30
0.0
 70
     1
  0
VERTEX
  5
441
  8
DATA
  6
CONTINUOUS
 62
     7
 10
-504.75
 20
584.6
 30
0.0
  0
VERTEX
  5
442
  8
DATA
  6
CONTINUOUS
 62
     7
 10
-495.25
 20
584.6
 30
0.0
  0
VERTEX
  5
443
  8
DATA
  6
CONTINUOUS
 62
     7
 10
-495.25
 20
580.5
 30
0.0
  0
VERTEX
  5
444
  8
DATA
  6
CONTINUOUS
 62
     7
 10
-504.75
 20
580.5
 30
0.0
  0
SEQEND
  5
48F
  8
DATA
  6
CONTINUOUS
 62
     7
  0
POLYLINE
  5
229
  8
DATA
  6
CONTINUOUS
 62
     7
 66
     1
 10
0.0
 20
0.0
 30
0.0
 70
     1
  0
VERTEX
  5
445
  8
DATA
  6
CONTINUOUS
 62
     7
 10
-504.75
 20
588.1
 30
0.0
  0
VERTEX
  5
446
  8
DATA
  6
CONTINUOUS
 62
     7
 10
-495.25
 20
588.1
 30
0.0
  0
VERTEX
  5
447
  8
DATA
  6
CONTINUOUS
 62
     7
 10
-495.25
 20
585.4000000000001
 30
0.0
  0
VERTEX
  5
448
  8
DATA
  6
CONTINUOUS
 62
     7
 10
-504.75
 20
585.4000000000001
 30
0.0
  0
SEQEND
  5
490
  8
DATA
  6
CONTINUOUS
 62
     7
  0
POLYLINE
  5
230
  8
DATA
  6
CONTINUOUS
 62
     7
 66
     1
 10
0.0
 20
0.0
 30
0.0
 70
     1
  0
VERTEX
  5
449
  8
DATA
  6
CONTINUOUS
 62
     7
 10
495.45
 20
198.6
 30
0.0
  0
VERTEX
  5
44A
  8
DATA
  6
CONTINUOUS
 62
     7
 10
504.55
 20
198.6
 30
0.0
  0
VERTEX
  5
44B
  8
DATA
  6
CONTINUOUS
 62
     7
 10
504.55
 20
194.9
 30
0.0
  0
VERTEX
  5
44C
  8
DATA
  6
CONTINUOUS
 62
     7
 10
495.45
 20
194.9
 30
0.0
  0
SEQEND
  5
491
  8
DATA
  6
CONTINUOUS
 62
     7
  0
POLYLINE
  5
237
  8
DATA
  6
CONTINUOUS
 62
     7
 66
     1
 10
0.0
 20
0.0
 30
0.0
 70
     1
  0
VERTEX
  5
44D
  8
DATA
  6
CONTINUOUS
 62
     7
 10
495.45
 20
203.0
 30
0.0
  0
VERTEX
  5
44E
  8
DATA
  6
CONTINUOUS
 62
     7
 10
504.55
 20
203.0
 30
0.0
  0
VERTEX
  5
44F
  8
DATA
  6
CONTINUOUS
 62
     7
 10
504.55
 20
199.4
 30
0.0
  0
VERTEX
  5
450
  8
DATA
  6
CONTINUOUS
 62
     7
 10
495.45
 20
199.4
 30
0.0
  0
SEQEND
  5
492
  8
DATA
  6
CONTINUOUS
 62
     7
  0
POLYLINE
  5
23E
  8
DATA
  6
CONTINUOUS
 62
     7
 66
     1
 10
0.0
 20
0.0
 30
0.0
 70
     1
  0
VERTEX
  5
451
  8
DATA
  6
CONTINUOUS
 62
     7
 10
495.45
 20
262.1
 30
0.0
  0
VERTEX
  5
452
  8
DATA
  6
CONTINUOUS
 62
     7
 10
504.55
 20
262.1
 30
0.0
  0
VERTEX
  5
453
  8
DATA
  6
CONTINUOUS
 62
     7
 10
504.55
 20
258.0
 30
0.0
  0
VERTEX
  5
454
  8
DATA
  6
CONTINUOUS
 62
     7
 10
495.45
 20
258.0
 30
0.0
  0
SEQEND
  5
493
  8
DATA
  6
CONTINUOUS
 62
     7
  0
POLYLINE
  5
245
  8
DATA
  6
CONTINUOUS
 62
     7
 66
     1
 10
0.0
 20
0.0
 30
0.0
 70
     1
  0
VERTEX
  5
455
  8
DATA
  6
CONTINUOUS
 62
     7
 10
495.45
 20
265.6
 30
0.0
  0
VERTEX
  5
456
  8
DATA
  6
CONTINUOUS
 62
     7
 10
504.55
 20
265.6
 30
0.0
  0
VERTEX
  5
457
  8
DATA
  6
CONTINUOUS
 62
     7
 10
504.55
 20
262.9
 30
0.0
  0
VERTEX
  5
458
  8
DATA
  6
CONTINUOUS
 62
     7
 10
495.45
 20
262.9
 30
0.0
  0
SEQEND
  5
494
  8
DATA
  6
CONTINUOUS
 62
     7
  0
POLYLINE
  5
24C
  8
DATA
  6
CONTINUOUS
 62
     7
 66
     1
 10
0.0
 20
0.0
 30
0.0
 70
     1
  0
VERTEX
  5
459
  8
DATA
  6
CONTINUOUS
 62
     7
 10
495.45
 20
518.5999999999999
 30
0.0
  0
VERTEX
  5
45A
  8
DATA
  6
CONTINUOUS
 62
     7
 10
504.55
 20
518.5999999999999
 30
0.0
  0
VERTEX
  5
45B
  8
DATA
  6
CONTINUOUS
 62
     7
 10
504.55
 20
514.9000000000001
 30
0.0
  0
VERTEX
  5
45C
  8
DATA
  6
CONTINUOUS
 62
     7
 10
495.45
 20
514.9000000000001
 30
0.0
  0
SEQEND
  5
495
  8
DATA
  6
CONTINUOUS
 62
     7
  0
POLYLINE
  5
253
  8
DATA
  6
CONTINUOUS
 62
     7
 66
     1
 10
0.0
 20
0.0
 30
0.0
 70
     1
  0
VERTEX
  5
45D
  8
DATA
  6
CONTINUOUS
 62
     7
 10
495.45
 20
523.0
 30
0.0
  0
VERTEX
  5
45E
  8
DATA
  6
CONTINUOUS
 62
     7
 10
504.55
 20
523.0
 30
0.0
  0
VERTEX
  5
45F
  8
DATA
  6
CONTINUOUS
 62
     7
 10
504.55
 20
519.4000000000001
 30
0.0
  0
VERTEX
  5
460
  8
DATA
  6
CONTINUOUS
 62
     7
 10
495.45
 20
519.4000000000001
 30
0.0
  0
SEQEND
  5
496
  8
DATA
  6
CONTINUOUS
 62
     7
  0
LINE
  5
25A
  8
DATA
  6
CONTINUOUS
 62
     7
 10
488.25
 20
-923.0
 30
0.0
 11
488.25
 21
-852.0
 31
0.0
  0
LINE
  5
25B
  8
DATA
  6
CONTINUOUS
 62
     7
 10
511.75
 20
-852.0
 30
0.0
 11
511.75
 21
-923.0
 31
0.0
  0
LINE
  5
25C
  8
DATA
  6
CONTINUOUS
 62
     7
 10
488.25
 20
-852.0
 30
0.0
 11
511.75
 21
-852.0
 31
0.0
  0
LINE
  5
25D
  8
DATA
  6
CONTINUOUS
 62
     7
 10
493.75
 20
-806.5
 30
0.0
 11
494.3
 21
-772.0
 31
0.0
  0
ARC
  5
25E
  8
DATA
  6
CONTINUOUS
 62
     7
 10
193.47265625
 20
-793.28515625
 30
0.0
 40
300.5679877579989
 50
348.7350459288817
 51
357.480107826148
  0
LINE
  5
25F
  8
DATA
  6
CONTINUOUS
 62
     7
 10
506.25
 20
-806.5
 30
0.0
 11
505.7
 21
-772.0
 31
0.0
  0
ARC
  5
260
  8
DATA
  6
CONTINUOUS
 62
     7
 10
806.52734375
 20
-793.28515625
 30
0.0
 40
300.5679877579989
 50
182.519892173852
 51
191.2649540711182
  0
LINE
  5
261
  8
DATA
  6
CONTINUOUS
 62
     7
 10
494.3
 20
-772.0
 30
0.0
 11
505.7
 21
-772.0
 31
0.0
  0
LINE
  5
262
  8
DATA
  6
CONTINUOUS
 62
     7
 10
505.25
 20
-771.5
 30
0.0
 11
494.75
 21
-771.5
 31
0.0
  0
LINE
  5
263
  8
DATA
  6
CONTINUOUS
 62
     7
 10
495.45
 20
-771.5
 30
0.0
 11
495.45
 21
194.1
 31
0.0
  0
LINE
  5
264
  8
DATA
  6
CONTINUOUS
 62
     7
 10
504.55
 20
194.1
 30
0.0
 11
504.55
 21
-771.5
 31
0.0
  0
LINE
  5
265
  8
DATA
  6
CONTINUOUS
 62
     7
 10
495.45
 20
194.1
 30
0.0
 11
504.55
 21
194.1
 31
0.0
  0
LINE
  5
266
  8
DATA
  6
CONTINUOUS
 62
     7
 10
494.3
 20
-772.0
 30
0.0
 11
494.75
 21
-771.5
 31
0.0
  0
LINE
  5
267
  8
DATA
  6
CONTINUOUS
 62
     7
 10
505.25
 20
-771.5
 30
0.0
 11
505.7
 21
-772.0
 31
0.0
  0
LINE
  5
268
  8
DATA
  6
CONTINUOUS
 62
     7
 10
493.25
 20
628.0
 30
0.0
 11
506.75
 21
628.0
 31
0.0
  0
ARC
  5
269
  8
DATA
  6
CONTINUOUS
 62
     7
 10
495.3333333333334
 20
199.0
 30
0.0
 40
0.416666666666647
 50
286.2602047083138
 51
73.73979529168616
  0
ARC
  5
26A
  8
DATA
  6
CONTINUOUS
 62
     7
 10
495.3333333333334
 20
194.5
 30
0.0
 40
0.416666666666647
 50
286.2602047083138
 51
73.73979529168616
  0
ARC
  5
26B
  8
DATA
  6
CONTINUOUS
 62
     7
 10
504.6666666666666
 20
199.0
 30
0.0
 40
0.416666666666647
 50
106.2602047083139
 51
253.7397952916861
  0
ARC
  5
26C
  8
DATA
  6
CONTINUOUS
 62
     7
 10
504.6666666666666
 20
194.5
 30
0.0
 40
0.416666666666647
 50
106.2602047083139
 51
253.7397952916861
  0
LINE
  5
26D
  8
DATA
  6
CONTINUOUS
 62
     7
 10
496.0
 20
203.0
 30
0.0
 11
496.0
 21
258.0
 31
0.0
  0
LINE
  5
26E
  8
DATA
  6
CONTINUOUS
 62
     7
 10
504.0
 20
203.8
 30
0.0
 11
496.0
 21
203.0
 31
0.0
  0
LINE
  5
26F
  8
DATA
  6
CONTINUOUS
 62
     7
 10
504.0
 20
258.0
 30
0.0
 11
504.0
 21
203.0
 31
0.0
  0
ARC
  5
270
  8
DATA
  6
CONTINUOUS
 62
     7
 10
495.3333333333334
 20
262.5
 30
0.0
 40
0.416666666666647
 50
286.2602047083138
 51
73.73979529168616
  0
ARC
  5
271
  8
DATA
  6
CONTINUOUS
 62
     7
 10
504.6666666666666
 20
262.5
 30
0.0
 40
0.416666666666647
 50
106.2602047083139
 51
253.7397952916861
  0
ARC
  5
272
  8
DATA
  6
CONTINUOUS
 62
     7
 10
495.3333333333334
 20
266.0
 30
0.0
 40
0.416666666666647
 50
286.2602047083138
 51
73.73979529168616
  0
ARC
  5
273
  8
DATA
  6
CONTINUOUS
 62
     7
 10
504.6666666666666
 20
266.0
 30
0.0
 40
0.416666666666647
 50
106.2602047083139
 51
253.7397952916861
  0
LINE
  5
274
  8
DATA
  6
CONTINUOUS
 62
     7
 10
504.0
 20
206.8
 30
0.0
 11
496.0
 21
206.0
 31
0.0
  0
LINE
  5
275
  8
DATA
  6
CONTINUOUS
 62
     7
 10
504.0
 20
209.8
 30
0.0
 11
496.0
 21
209.0
 31
0.0
  0
LINE
  5
276
  8
DATA
  6
CONTINUOUS
 62
     7
 10
504.0
 20
212.8
 30
0.0
 11
496.0
 21
212.0
 31
0.0
  0
LINE
  5
277
  8
DATA
  6
CONTINUOUS
 62
     7
 10
504.0
 20
215.8
 30
0.0
 11
496.0
 21
215.0
 31
0.0
  0
LINE
  5
278
  8
DATA
  6
CONTINUOUS
 62
     7
 10
504.0
 20
218.8
 30
0.0
 11
496.0
 21
218.0
 31
0.0
  0
LINE
  5
279
  8
DATA
  6
CONTINUOUS
 62
     7
 10
504.0
 20
221.8
 30
0.0
 11
496.0
 21
221.0
 31
0.0
  0
LINE
  5
27A
  8
DATA
  6
CONTINUOUS
 62
     7
 10
504.0
 20
224.8
 30
0.0
 11
496.0
 21
224.0
 31
0.0
  0
LINE
  5
27B
  8
DATA
  6
CONTINUOUS
 62
     7
 10
504.0
 20
227.8
 30
0.0
 11
496.0
 21
227.0
 31
0.0
  0
LINE
  5
27C
  8
DATA
  6
CONTINUOUS
 62
     7
 10
504.0
 20
230.8
 30
0.0
 11
496.0
 21
230.0
 31
0.0
  0
LINE
  5
27D
  8
DATA
  6
CONTINUOUS
 62
     7
 10
504.0
 20
233.8
 30
0.0
 11
496.0
 21
233.0
 31
0.0
  0
LINE
  5
27E
  8
DATA
  6
CONTINUOUS
 62
     7
 10
504.0
 20
236.8
 30
0.0
 11
496.0
 21
236.0
 31
0.0
  0
LINE
  5
27F
  8
DATA
  6
CONTINUOUS
 62
     7
 10
504.0
 20
239.8
 30
0.0
 11
496.0
 21
239.0
 31
0.0
  0
LINE
  5
280
  8
DATA
  6
CONTINUOUS
 62
     7
 10
504.0
 20
242.8
 30
0.0
 11
496.0
 21
242.0
 31
0.0
  0
LINE
  5
281
  8
DATA
  6
CONTINUOUS
 62
     7
 10
504.0
 20
245.8
 30
0.0
 11
496.0
 21
245.0
 31
0.0
  0
LINE
  5
282
  8
DATA
  6
CONTINUOUS
 62
     7
 10
504.0
 20
248.8
 30
0.0
 11
496.0
 21
248.0
 31
0.0
  0
LINE
  5
283
  8
DATA
  6
CONTINUOUS
 62
     7
 10
504.0
 20
251.8
 30
0.0
 11
496.0
 21
251.0
 31
0.0
  0
LINE
  5
284
  8
DATA
  6
CONTINUOUS
 62
     7
 10
504.0
 20
254.8
 30
0.0
 11
496.0
 21
254.0
 31
0.0
  0
LINE
  5
285
  8
DATA
  6
CONTINUOUS
 62
     7
 10
504.0
 20
257.8
 30
0.0
 11
496.0
 21
257.0
 31
0.0
  0
POLYLINE
  5
286
  8
DATA
  6
CONTINUOUS
 62
     7
 66
     1
 10
0.0
 20
0.0
 30
0.0
 70
     1
  0
VERTEX
  5
461
  8
DATA
  6
CONTINUOUS
 62
     7
 10
495.45
 20
514.0999999999999
 30
0.0
  0
VERTEX
  5
462
  8
DATA
  6
CONTINUOUS
 62
     7
 10
504.55
 20
514.0999999999999
 30
0.0
  0
VERTEX
  5
463
  8
DATA
  6
CONTINUOUS
 62
     7
 10
504.55
 20
266.4
 30
0.0
  0
VERTEX
  5
464
  8
DATA
  6
CONTINUOUS
 62
     7
 10
495.45
 20
266.4
 30
0.0
  0
SEQEND
  5
497
  8
DATA
  6
CONTINUOUS
 62
     7
  0
LINE
  5
28D
  8
DATA
  6
CONTINUOUS
 62
     7
 10
495.25
 20
588.9
 30
0.0
 11
495.25
 21
603.0
 31
0.0
  0
LINE
  5
28E
  8
DATA
  6
CONTINUOUS
 62
     7
 10
504.75
 20
588.9000000000001
 30
0.0
 11
504.75
 21
603.0
 31
0.0
  0
LINE
  5
28F
  8
DATA
  6
CONTINUOUS
 62
     7
 10
495.25
 20
603.0
 30
0.0
 11
504.75
 21
603.0
 31
0.0
  0
ARC
  5
290
  8
DATA
  6
CONTINUOUS
 62
     7
 10
639.3888888888889
 20
627.1111111111111
 30
0.0
 40
146.1415921944736
 50
179.6515030727649
 51
189.4963394470368
  0
ARC
  5
291
  8
DATA
  6
CONTINUOUS
 62
     7
 10
360.6111111111111
 20
627.1111111111111
 30
0.0
 40
146.1415921944735
 50
350.5036605529631
 51
0.3484969272351464
  0
LINE
  5
292
  8
DATA
  6
CONTINUOUS
 62
     7
 10
493.75
 20
-806.5
 30
0.0
 11
506.25
 21
-806.5
 31
0.0
  0
ARC
  5
293
  8
DATA
  6
CONTINUOUS
 62
     7
 10
495.1333333333333
 20
585.0
 30
0.0
 40
0.416666666666647
 50
286.2602047083138
 51
73.73979529169054
  0
ARC
  5
294
  8
DATA
  6
CONTINUOUS
 62
     7
 10
504.8666666666667
 20
585.0
 30
0.0
 40
0.4166666666667561
 50
106.2602047083095
 51
253.7397952916861
  0
ARC
  5
295
  8
DATA
  6
CONTINUOUS
 62
     7
 10
495.1333333333333
 20
588.5
 30
0.0
 40
0.416666666666647
 50
286.2602047083138
 51
73.73979529169054
  0
ARC
  5
296
  8
DATA
  6
CONTINUOUS
 62
     7
 10
504.8666666666667
 20
588.5
 30
0.0
 40
0.4166666666667561
 50
106.2602047083095
 51
253.7397952916861
  0
LINE
  5
297
  8
DATA
  6
CONTINUOUS
 62
     7
 10
495.25
 20
588.9000000000001
 30
0.0
 11
504.75
 21
588.9000000000001
 31
0.0
  0
CIRCLE
  5
298
  8
DATA
  6
CONTINUOUS
 62
     7
 10
500.0
 20
799.9999999999998
 30
0.0
 40
6.75
  0
POLYLINE
  5
299
  8
DATA
  6
CONTINUOUS
 62
     7
 66
     1
 10
0.0
 20
0.0
 30
0.0
 70
     1
  0
VERTEX
  5
465
  8
DATA
  6
CONTINUOUS
 62
     7
 10
493.8122493198505
 20
619.0
 30
0.0
  0
VERTEX
  5
466
  8
DATA
  6
CONTINUOUS
 62
     7
 10
506.1877506801495
 20
619.0
 30
0.0
  0
VERTEX
  5
467
  8
DATA
  6
CONTINUOUS
 62
     7
 10
506.1877506801495
 20
616.5
 30
0.0
  0
VERTEX
  5
468
  8
DATA
  6
CONTINUOUS
 62
     7
 10
493.8122493198505
 20
616.5
 30
0.0
  0
SEQEND
  5
498
  8
DATA
  6
CONTINUOUS
 62
     7
  0
CIRCLE
  5
2A0
  8
DATA
  6
CONTINUOUS
 62
     7
 10
500.0
 20
799.9999999999998
 30
0.0
 40
5.649999999999977
  0
CIRCLE
  5
2A1
  8
DATA
  6
CONTINUOUS
 62
     7
 10
500.0
 20
799.9999999999998
 30
0.0
 40
1.75
  0
TEXT
  5
2A2
  8
DATA
 62
     7
 10
497.1875342881945
 20
-850.8144205729167
 30
0.0
 40
1.628841145833333
  1
GN 155
 41
0.7
 72
     1
 11
500.0
 21
-850.0
 31
0.0
 73
     2
  0
ARC
  5
2A3
  8
DATA
  6
CONTINUOUS
 62
     7
 10
499.9999999998863
 20
799.9999999999999
 30
0.0
 40
89.9999999998863
 50
181.0504814764288
 51
178.9495185235712
  0
ARC
  5
2A4
  8
DATA
  6
CONTINUOUS
 62
     7
 10
499.9999999998831
 20
799.9999999999974
 30
0.0
 40
70.9999999998831
 50
181.3316415185049
 51
178.6683584814911
  0
ARC
  5
2A5
  8
DATA
  6
CONTINUOUS
 62
     7
 10
499.9999999997324
 20
800.0
 30
0.0
 40
87.49999999973241
 50
181.0804987419344
 51
178.9195012580656
  0
ARC
  5
2A6
  8
DATA
  6
CONTINUOUS
 62
     7
 10
499.9999999997195
 20
800.0
 30
0.0
 40
72.9999999997196
 50
181.2951518864017
 51
178.7048481135984
  0
POLYLINE
  5
2A7
  8
DATA
  6
CONTINUOUS
 62
     7
 66
     1
 10
0.0
 20
0.0
 30
0.0
 70
     1
  0
VERTEX
  5
469
  8
DATA
  6
CONTINUOUS
 62
     7
 10
410.0
 20
-942.0
 30
0.0
  0
VERTEX
  5
46A
  8
DATA
  6
CONTINUOUS
 62
     7
 10
590.0
 20
-942.0
 30
0.0
  0
VERTEX
  5
46B
  8
DATA
  6
CONTINUOUS
 62
     7
 10
590.0
 20
-955.0
 30
0.0
  0
VERTEX
  5
46C
  8
DATA
  6
CONTINUOUS
 62
     7
 10
410.0
 20
-955.0
 30
0.0
  0
SEQEND
  5
499
  8
DATA
  6
CONTINUOUS
 62
     7
  0
LINE
  5
2AE
  8
DATA
  6
CONTINUOUS
 62
     7
 10
412.5
 20
-955.0
 30
0.0
 11
412.5
 21
-958.0
 31
0.0
  0
ARC
  5
2AF
  8
DATA
  6
CONTINUOUS
 62
     7
 10
419.75
 20
-950.7395833333335
 30
0.0
 40
10.26041666666656
 50
225.0411312057932
 51
270.0
  0
LINE
  5
2B0
  8
DATA
  6
CONTINUOUS
 62
     7
 10
587.5
 20
-955.0
 30
0.0
 11
587.5
 21
-958.0
 31
0.0
  0
ARC
  5
2B1
  8
DATA
  6
CONTINUOUS
 62
     7
 10
580.25
 20
-950.7395833333335
 30
0.0
 40
10.26041666666652
 50
270.0
 51
314.9588687942069
  0
LINE
  5
2B2
  8
DATA
  6
CONTINUOUS
 62
     7
 10
419.75
 20
-961.0
 30
0.0
 11
580.25
 21
-961.0
 31
0.0
  0
LINE
  5
2B3
  8
DATA
  6
CONTINUOUS
 62
     7
 10
410.0
 20
-942.0
 30
0.0
 11
413.0
 21
-923.0
 31
0.0
  0
LINE
  5
2B4
  8
DATA
  6
CONTINUOUS
 62
     7
 10
590.0
 20
-942.0
 30
0.0
 11
587.0
 21
-923.0
 31
0.0
  0
LINE
  5
2B5
  8
DATA
  6
CONTINUOUS
 62
     7
 10
413.0
 20
-923.0
 30
0.0
 11
587.0
 21
-923.0
 31
0.0
  0
LINE
  5
2B6
  8
DATA
  6
CONTINUOUS
 62
     7
 10
410.0151262711338
 20
-1148.35
 30
0.0
 11
252.2277452844677
 21
-1148.35
 31
0.0
  0
LINE
  5
2B7
  8
DATA
  6
CONTINUOUS
 62
     7
 10
410.0151262711338
 20
-1151.65
 30
0.0
 11
247.7722547155322
 21
-1151.65
 31
0.0
  0
ARC
  5
2B8
  8
DATA
  6
CONTINUOUS
 62
     7
 10
257.7697362906197
 20
-1162.819192672255
 30
0.0
 40
14.99001343542301
 50
121.2201306816681
 51
234.350233035824
  0
ARC
  5
2B9
  8
DATA
  6
CONTINUOUS
 62
     7
 10
242.2302637093803
 20
-1137.180807327745
 30
0.0
 40
14.9900134354234
 50
301.2201306816672
 51
54.35023303582298
  0
CIRCLE
  5
2BA
  8
DATA
  6
CONTINUOUS
 62
     7
 10
500.0
 20
-1150.0
 30
0.0
 40
90.0
  0
CIRCLE
  5
2BB
  8
DATA
  6
CONTINUOUS
 62
     7
 10
500.0
 20
-1150.0
 30
0.0
 40
87.0
  0
CIRCLE
  5
2BC
  8
DATA
  6
CONTINUOUS
 62
     7
 10
500.0
 20
-1150.0
 30
0.0
 40
5.099999999999909
  0
CIRCLE
  5
2BD
  8
DATA
  6
CONTINUOUS
 62
     7
 10
502.0
 20
-1150.0
 30
0.0
 40
19.5
  0
CIRCLE
  5
2BE
  8
DATA
  6
CONTINUOUS
 62
     7
 10
502.0
 20
-1150.0
 30
0.0
 40
21.0
  0
ARC
  5
2BF
  8
DATA
  6
CONTINUOUS
 62
     7
 10
98.77813912742488
 20
-869.7158369591004
 30
0.0
 40
1.793333838632449
 50
77.66889163359619
 51
94.11030905155054
  0
ARC
  5
2C0
  8
DATA
  6
CONTINUOUS
 62
     7
 10
87.62807921991453
 20
-863.7749809883128
 30
0.0
 40
0.7285407330893404
 50
88.28460140441608
 51
178.1750791526449
  0
ARC
  5
2C1
  8
DATA
  6
CONTINUOUS
 62
     7
 10
87.54635073825784
 20
-864.5105790944531
 30
0.0
 40
0.6647009207048087
 50
193.4602279726285
 51
278.961177147116
  0
ARC
  5
2C2
  8
DATA
  6
CONTINUOUS
 62
     7
 10
87.59368063388274
 20
-867.1325184427947
 30
0.0
 40
0.6970166677740012
 50
85.3746508878657
 51
174.4699720824061
  0
ARC
  5
2C3
  8
DATA
  6
CONTINUOUS
 62
     7
 10
87.61063831087495
 20
-866.3580751842219
 30
0.0
 40
1.633265246842528
 50
252.5024284293461
 51
271.3770317155647
  0
ARC
  5
2C4
  8
DATA
  6
CONTINUOUS
 62
     7
 10
87.3078781156031
 20
-867.3649787566585
 30
0.0
 40
0.5820900359384172
 50
230.464423447275
 51
251.1252784596406
  0
ARC
  5
2C5
  8
DATA
  6
CONTINUOUS
 62
     7
 10
87.00291490731479
 20
-867.7344622958378
 30
0.0
 40
0.1030069073162532
 50
179.9996963873333
 51
230.4639786948819
  0
ARC
  5
2C6
  8
DATA
  6
CONTINUOUS
 62
     7
 10
87.62807921991453
 20
-856.9250190116875
 30
0.0
 40
0.7285407330891714
 50
181.8249208473551
 51
271.7153985955839
  0
ARC
  5
2C7
  8
DATA
  6
CONTINUOUS
 62
     7
 10
87.54635073825784
 20
-856.1894209055472
 30
0.0
 40
0.6647009207049019
 50
81.038822852884
 51
166.5397720273715
  0
ARC
  5
2C8
  8
DATA
  6
CONTINUOUS
 62
     7
 10
87.59368063388274
 20
-853.5674815572056
 30
0.0
 40
0.697016667774018
 50
185.5300279175939
 51
274.6253491121343
  0
LINE
  5
2C9
  8
DATA
  6
CONTINUOUS
 62
     7
 10
242.2277452844701
 20
-858.7
 30
0.0
 11
121.0
 21
-858.7
 31
0.0
  0
LINE
  5
2CA
  8
DATA
  6
CONTINUOUS
 62
     7
 10
38.09999999999991
 20
-851.3000000000002
 30
0.0
 11
55.09999999999991
 21
-851.3000000000002
 31
0.0
  0
LINE
  5
2CB
  8
DATA
  6
CONTINUOUS
 62
     7
 10
55.09999999999991
 20
-869.4000000000001
 30
0.0
 11
38.09999999999991
 21
-869.4000000000001
 31
0.0
  0
LINE
  5
2CC
  8
DATA
  6
CONTINUOUS
 62
     7
 10
85.89993400000003
 20
-869.84974975
 30
0.0
 11
92.54897549999998
 21
-869.3848037500002
 31
0.0
  0
LINE
  5
2CD
  8
DATA
  6
CONTINUOUS
 62
     7
 10
85.89993400000003
 20
-869.3848037500002
 30
0.0
 11
96.061553
 21
-869.3848037500002
 31
0.0
  0
LINE
  5
2CE
  8
DATA
  6
CONTINUOUS
 62
     7
 10
85.89993400000003
 20
-851.3151962500001
 30
0.0
 11
96.061553
 21
-851.3151962500001
 31
0.0
  0
LINE
  5
2CF
  8
DATA
  6
CONTINUOUS
 62
     7
 10
85.89993400000003
 20
-850.8502497500001
 30
0.0
 11
92.54897549999998
 21
-851.3151962500001
 31
0.0
  0
ARC
  5
2D0
  8
DATA
  6
CONTINUOUS
 62
     7
 10
119.5000395
 20
-856.7900247500002
 30
0.0
 40
1.499960500000043
 50
0.0
 51
81.99999999999915
  0
ARC
  5
2D1
  8
DATA
  6
CONTINUOUS
 62
     7
 10
119.5000395
 20
-863.9099752500001
 30
0.0
 40
1.499960499999921
 50
278.0000000000009
 51
0.0
  0
LINE
  5
2D2
  8
DATA
  6
CONTINUOUS
 62
     7
 10
121.0
 20
-863.9099752500001
 30
0.0
 11
121.0
 21
-856.7900247500002
 31
0.0
  0
LINE
  5
2D3
  8
DATA
  6
CONTINUOUS
 62
     7
 10
99.8995655
 20
-852.4453182500001
 30
0.0
 11
99.8995655
 21
-860.34999975
 31
0.0
  0
LINE
  5
2D4
  8
DATA
  6
CONTINUOUS
 62
     7
 10
99.8995655
 20
-868.4410887500001
 30
0.0
 11
99.8995655
 21
-852.2740697500001
 31
0.0
  0
ARC
  5
2D5
  8
DATA
  6
CONTINUOUS
 62
     7
 10
104.500434
 20
-853.2375347500001
 30
0.0
 40
0.4999870000000328
 50
180.0
 51
0.0
  0
ARC
  5
2D6
  8
DATA
  6
CONTINUOUS
 62
     7
 10
112.5002234999999
 20
-854.3618317500002
 30
0.0
 40
0.4999869999999191
 50
180.0
 51
0.0
  0
ARC
  5
2D7
  8
DATA
  6
CONTINUOUS
 62
     7
 10
116.5001185
 20
-854.9239802500001
 30
0.0
 40
0.4999870000000328
 50
180.0
 51
0.0
  0
LINE
  5
2D8
  8
DATA
  6
CONTINUOUS
 62
     7
 10
117.000105
 20
-854.9239802500001
 30
0.0
 11
119.7087935
 21
-855.3046617500002
 31
0.0
  0
ARC
  5
2D9
  8
DATA
  6
CONTINUOUS
 62
     7
 10
114.500171
 20
-854.6429062500001
 30
0.0
 40
0.4999870000000328
 50
180.0
 51
0.0
  0
ARC
  5
2DA
  8
DATA
  6
CONTINUOUS
 62
     7
 10
115.5001445
 20
-854.6429062500001
 30
0.0
 40
0.4999869999999191
 50
0.0
 51
180.0
  0
LINE
  5
2DB
  8
DATA
  6
CONTINUOUS
 62
     7
 10
116.0001315
 20
-854.9239802500001
 30
0.0
 11
116.0001315
 21
-854.6429062500001
 31
0.0
  0
ARC
  5
2DC
  8
DATA
  6
CONTINUOUS
 62
     7
 10
113.500197
 20
-854.3618317500002
 30
0.0
 40
0.4999870000000328
 50
0.0
 51
180.0
  0
LINE
  5
2DD
  8
DATA
  6
CONTINUOUS
 62
     7
 10
114.000184
 20
-854.6429062500001
 30
0.0
 11
114.000184
 21
-854.3618317500002
 31
0.0
  0
ARC
  5
2DE
  8
DATA
  6
CONTINUOUS
 62
     7
 10
108.500329
 20
-853.79968325
 30
0.0
 40
0.4999869999999191
 50
180.0
 51
0.0
  0
ARC
  5
2DF
  8
DATA
  6
CONTINUOUS
 62
     7
 10
109.5003025
 20
-853.79968325
 30
0.0
 40
0.4999870000000328
 50
0.0
 51
180.0
  0
ARC
  5
2E0
  8
DATA
  6
CONTINUOUS
 62
     7
 10
110.500276
 20
-854.08075725
 30
0.0
 40
0.4999869999999191
 50
180.0
 51
0.0
  0
ARC
  5
2E1
  8
DATA
  6
CONTINUOUS
 62
     7
 10
111.5002500000001
 20
-854.08075725
 30
0.0
 40
0.4999869999999191
 50
0.0
 51
180.0
  0
LINE
  5
2E2
  8
DATA
  6
CONTINUOUS
 62
     7
 10
112.0002365
 20
-854.3618317500002
 30
0.0
 11
112.0002365
 21
-854.08075725
 31
0.0
  0
LINE
  5
2E3
  8
DATA
  6
CONTINUOUS
 62
     7
 10
110.0002895
 20
-854.08075725
 30
0.0
 11
110.0002895
 21
-853.79968325
 31
0.0
  0
LINE
  5
2E4
  8
DATA
  6
CONTINUOUS
 62
     7
 10
108.000342
 20
-853.79968325
 30
0.0
 11
108.000342
 21
-853.5186087500001
 31
0.0
  0
ARC
  5
2E5
  8
DATA
  6
CONTINUOUS
 62
     7
 10
106.5003815
 20
-853.5186087500001
 30
0.0
 40
0.4999870000000328
 50
180.0
 51
0.0
  0
ARC
  5
2E6
  8
DATA
  6
CONTINUOUS
 62
     7
 10
107.500355
 20
-853.5186087500001
 30
0.0
 40
0.4999870000000328
 50
0.0
 51
180.0
  0
ARC
  5
2E7
  8
DATA
  6
CONTINUOUS
 62
     7
 10
105.5004075000001
 20
-853.2375347500001
 30
0.0
 40
0.4999869999999191
 50
0.0
 51
180.0
  0
LINE
  5
2E8
  8
DATA
  6
CONTINUOUS
 62
     7
 10
106.0003945
 20
-853.5186087500001
 30
0.0
 11
106.0003945
 21
-853.2375347500001
 31
0.0
  0
LINE
  5
2E9
  8
DATA
  6
CONTINUOUS
 62
     7
 10
103.5700450000001
 20
-852.4613392500003
 30
0.0
 11
101.0005265
 21
-852.1002169735775
 31
0.0
  0
ARC
  5
2EA
  8
DATA
  6
CONTINUOUS
 62
     7
 10
103.5004605
 20
-852.9564602500002
 30
0.0
 40
0.4999870000000328
 50
0.0
 51
81.99999999999876
  0
LINE
  5
2EB
  8
DATA
  6
CONTINUOUS
 62
     7
 10
98.64959850000002
 20
-851.6611207500002
 30
0.0
 11
96.061553
 21
-851.3151962500001
 31
0.0
  0
ARC
  5
2EC
  8
DATA
  6
CONTINUOUS
 62
     7
 10
104.500434
 20
-867.4624652500002
 30
0.0
 40
0.4999869999999191
 50
0.0
 51
180.0
  0
ARC
  5
2ED
  8
DATA
  6
CONTINUOUS
 62
     7
 10
112.5002234999999
 20
-866.3381682500001
 30
0.0
 40
0.4999870000000328
 50
0.0
 51
180.0
  0
ARC
  5
2EE
  8
DATA
  6
CONTINUOUS
 62
     7
 10
116.5001185
 20
-865.7760197500002
 30
0.0
 40
0.4999870000000328
 50
0.0
 51
180.0
  0
LINE
  5
2EF
  8
DATA
  6
CONTINUOUS
 62
     7
 10
117.000105
 20
-865.7760197500002
 30
0.0
 11
119.7087935
 21
-865.3953382500001
 31
0.0
  0
ARC
  5
2F0
  8
DATA
  6
CONTINUOUS
 62
     7
 10
114.500171
 20
-866.0570937500001
 30
0.0
 40
0.4999870000000328
 50
0.0
 51
180.0
  0
ARC
  5
2F1
  8
DATA
  6
CONTINUOUS
 62
     7
 10
115.5001445
 20
-866.0570937500001
 30
0.0
 40
0.4999870000000328
 50
180.0
 51
0.0
  0
LINE
  5
2F2
  8
DATA
  6
CONTINUOUS
 62
     7
 10
116.0001315
 20
-865.7760197500002
 30
0.0
 11
116.0001315
 21
-866.0570937500001
 31
0.0
  0
ARC
  5
2F3
  8
DATA
  6
CONTINUOUS
 62
     7
 10
113.500197
 20
-866.3381682500001
 30
0.0
 40
0.4999869999999191
 50
180.0
 51
0.0
  0
LINE
  5
2F4
  8
DATA
  6
CONTINUOUS
 62
     7
 10
114.000184
 20
-866.0570937500001
 30
0.0
 11
114.000184
 21
-866.3381682500001
 31
0.0
  0
ARC
  5
2F5
  8
DATA
  6
CONTINUOUS
 62
     7
 10
108.500329
 20
-866.9003167500002
 30
0.0
 40
0.4999870000000328
 50
0.0
 51
180.0
  0
ARC
  5
2F6
  8
DATA
  6
CONTINUOUS
 62
     7
 10
110.500276
 20
-866.6192422500001
 30
0.0
 40
0.4999870000000328
 50
0.0
 51
180.0
  0
ARC
  5
2F7
  8
DATA
  6
CONTINUOUS
 62
     7
 10
111.5002500000001
 20
-866.6192422500001
 30
0.0
 40
0.4999870000000328
 50
180.0
 51
0.0
  0
LINE
  5
2F8
  8
DATA
  6
CONTINUOUS
 62
     7
 10
112.0002365
 20
-866.6192422500001
 30
0.0
 11
112.0002365
 21
-866.3381682500001
 31
0.0
  0
ARC
  5
2F9
  8
DATA
  6
CONTINUOUS
 62
     7
 10
109.5003025
 20
-866.9003167500002
 30
0.0
 40
0.4999870000000328
 50
180.0
 51
0.0
  0
LINE
  5
2FA
  8
DATA
  6
CONTINUOUS
 62
     7
 10
110.0002895
 20
-866.6192422500001
 30
0.0
 11
110.0002895
 21
-866.9003167500002
 31
0.0
  0
ARC
  5
2FB
  8
DATA
  6
CONTINUOUS
 62
     7
 10
106.5003815
 20
-867.1813907500002
 30
0.0
 40
0.4999870000000328
 50
0.0
 51
180.0
  0
ARC
  5
2FC
  8
DATA
  6
CONTINUOUS
 62
     7
 10
107.500355
 20
-867.1813907500002
 30
0.0
 40
0.4999870000000328
 50
180.0
 51
0.0
  0
LINE
  5
2FD
  8
DATA
  6
CONTINUOUS
 62
     7
 10
108.000342
 20
-866.9003167500002
 30
0.0
 11
108.000342
 21
-867.1813907500002
 31
0.0
  0
ARC
  5
2FE
  8
DATA
  6
CONTINUOUS
 62
     7
 10
105.5004075000001
 20
-867.4624652500002
 30
0.0
 40
0.4999870000000328
 50
180.0
 51
0.0
  0
LINE
  5
2FF
  8
DATA
  6
CONTINUOUS
 62
     7
 10
106.0003945
 20
-867.1813907500002
 30
0.0
 11
106.0003945
 21
-867.4624652500002
 31
0.0
  0
ARC
  5
300
  8
DATA
  6
CONTINUOUS
 62
     7
 10
103.5004605
 20
-867.7435397500001
 30
0.0
 40
0.4999870000000113
 50
278.0000000000013
 51
0.0
  0
LINE
  5
301
  8
DATA
  6
CONTINUOUS
 62
     7
 10
99.8995655
 20
-868.2546812500002
 30
0.0
 11
99.8995655
 21
-860.34999975
 31
0.0
  0
LINE
  5
302
  8
DATA
  6
CONTINUOUS
 62
     7
 10
99.8995655
 20
-868.4259302500002
 30
0.0
 11
99.8995655
 21
-860.34999975
 31
0.0
  0
LINE
  5
303
  8
DATA
  6
CONTINUOUS
 62
     7
 10
104.000447
 20
-867.4624652500002
 30
0.0
 11
104.000447
 21
-867.7435397500001
 31
0.0
  0
LINE
  5
304
  8
DATA
  6
CONTINUOUS
 62
     7
 10
103.5700450000001
 20
-868.23866075
 30
0.0
 11
101.0005265
 21
-868.5997830264228
 31
0.0
  0
ARC
  5
305
  8
DATA
  6
CONTINUOUS
 62
     7
 10
99.69957099999999
 20
-868.4259302500002
 30
0.0
 40
0.1999944999999631
 50
314.5030060000063
 51
0.0
  0
LINE
  5
306
  8
DATA
  6
CONTINUOUS
 62
     7
 10
98.64959850000002
 20
-869.03887925
 30
0.0
 11
96.061553
 21
-869.3848037500002
 31
0.0
  0
LINE
  5
307
  8
DATA
  6
CONTINUOUS
 62
     7
 10
85.89993400000003
 20
-850.8502497500001
 30
0.0
 11
83.39999999999998
 21
-850.8502497500001
 31
0.0
  0
LINE
  5
308
  8
DATA
  6
CONTINUOUS
 62
     7
 10
85.89993400000003
 20
-869.84974975
 30
0.0
 11
83.39999999999998
 21
-869.84974975
 31
0.0
  0
LINE
  5
309
  8
DATA
  6
CONTINUOUS
 62
     7
 10
98.64959850000002
 20
-867.92711575
 30
0.0
 11
85.89993400000003
 21
-869.3848037500002
 31
0.0
  0
LINE
  5
30A
  8
DATA
  6
CONTINUOUS
 62
     7
 10
98.52705300000002
 20
-861.5939452500002
 30
0.0
 11
85.89993400000003
 21
-860.34999975
 31
0.0
  0
LINE
  5
30B
  8
DATA
  6
CONTINUOUS
 62
     7
 10
98.52705300000002
 20
-859.1060547500001
 30
0.0
 11
85.89993400000003
 21
-860.34999975
 31
0.0
  0
LINE
  5
30C
  8
DATA
  6
CONTINUOUS
 62
     7
 10
98.64959850000002
 20
-852.7728842500003
 30
0.0
 11
85.89993400000003
 21
-851.3151962500001
 31
0.0
  0
ARC
  5
30D
  8
DATA
  6
CONTINUOUS
 62
     7
 10
98.64959850000002
 20
-860.34999975
 30
0.0
 40
1.2499670000002
 50
264.3737427010437
 51
95.62627099999882
  0
LINE
  5
30E
  8
DATA
  6
CONTINUOUS
 62
     7
 10
109.0003154999999
 20
-866.9003197500001
 30
0.0
 11
109.0003154999999
 21
-853.79968325
 31
0.0
  0
LINE
  5
30F
  8
DATA
  6
CONTINUOUS
 62
     7
 10
107.0003685
 20
-867.1813937500001
 30
0.0
 11
107.0003685
 21
-853.5186087500001
 31
0.0
  0
LINE
  5
310
  8
DATA
  6
CONTINUOUS
 62
     7
 10
110.0002895
 20
-866.6192422500001
 30
0.0
 11
110.0002895
 21
-854.08075725
 31
0.0
  0
LINE
  5
311
  8
DATA
  6
CONTINUOUS
 62
     7
 10
108.000342
 20
-866.9003167500002
 30
0.0
 11
108.000342
 21
-853.79968325
 31
0.0
  0
LINE
  5
312
  8
DATA
  6
CONTINUOUS
 62
     7
 10
106.0003945
 20
-867.1813907500002
 30
0.0
 11
106.0003945
 21
-853.5186087500001
 31
0.0
  0
LINE
  5
313
  8
DATA
  6
CONTINUOUS
 62
     7
 10
117.000105
 20
-865.77602275
 30
0.0
 11
117.000105
 21
-854.9239802500001
 31
0.0
  0
LINE
  5
314
  8
DATA
  6
CONTINUOUS
 62
     7
 10
115.0001580000001
 20
-866.05709675
 30
0.0
 11
115.0001580000001
 21
-854.6429062500001
 31
0.0
  0
LINE
  5
315
  8
DATA
  6
CONTINUOUS
 62
     7
 10
113.0002105
 20
-866.3381712500002
 30
0.0
 11
113.0002105
 21
-854.3618317500002
 31
0.0
  0
LINE
  5
316
  8
DATA
  6
CONTINUOUS
 62
     7
 10
111.000263
 20
-866.6192452500002
 30
0.0
 11
111.000263
 21
-854.08075725
 31
0.0
  0
LINE
  5
317
  8
DATA
  6
CONTINUOUS
 62
     7
 10
116.0001315
 20
-865.7760197500002
 30
0.0
 11
116.0001315
 21
-854.9239802500001
 31
0.0
  0
LINE
  5
318
  8
DATA
  6
CONTINUOUS
 62
     7
 10
114.000184
 20
-866.0570937500001
 30
0.0
 11
114.000184
 21
-854.6429062500001
 31
0.0
  0
LINE
  5
319
  8
DATA
  6
CONTINUOUS
 62
     7
 10
112.0002365
 20
-866.3381682500001
 30
0.0
 11
112.0002365
 21
-854.3618317500002
 31
0.0
  0
LINE
  5
31A
  8
DATA
  6
CONTINUOUS
 62
     7
 10
105.000421
 20
-867.46246825
 30
0.0
 11
105.000421
 21
-853.2375347500001
 31
0.0
  0
LINE
  5
31B
  8
DATA
  6
CONTINUOUS
 62
     7
 10
104.000447
 20
-867.4624652500002
 30
0.0
 11
104.0004475000001
 21
-852.9564602500002
 31
0.0
  0
LINE
  5
31C
  8
DATA
  6
CONTINUOUS
 62
     7
 10
96.34197449999999
 20
-853.5485217500002
 30
0.0
 11
87.64988800000003
 21
-852.7091312500002
 31
0.0
  0
LINE
  5
31D
  8
DATA
  6
CONTINUOUS
 62
     7
 10
96.34197449999999
 20
-854.1648102500001
 30
0.0
 11
87.64988800000003
 21
-854.2622282500001
 31
0.0
  0
LINE
  5
31E
  8
DATA
  6
CONTINUOUS
 62
     7
 10
96.34197449999999
 20
-856.3753797500001
 30
0.0
 11
87.64988800000003
 21
-855.5328332500001
 31
0.0
  0
LINE
  5
31F
  8
DATA
  6
CONTINUOUS
 62
     7
 10
96.061553
 20
-853.5214417500001
 30
0.0
 11
96.061553
 21
-852.4769892500001
 31
0.0
  0
LINE
  5
320
  8
DATA
  6
CONTINUOUS
 62
     7
 10
96.061553
 20
-856.3481977500003
 30
0.0
 11
96.061553
 21
-854.16795325
 31
0.0
  0
LINE
  5
321
  8
DATA
  6
CONTINUOUS
 62
     7
 10
96.061553
 20
-867.1785582500002
 30
0.0
 11
96.061553
 21
-868.2230107500002
 31
0.0
  0
LINE
  5
322
  8
DATA
  6
CONTINUOUS
 62
     7
 10
96.34197449999999
 20
-863.4832187500001
 30
0.0
 11
87.64988800000003
 21
-863.0467667500002
 31
0.0
  0
LINE
  5
323
  8
DATA
  6
CONTINUOUS
 62
     7
 10
96.34197449999999
 20
-864.3246202500002
 30
0.0
 11
87.64988800000003
 21
-865.1671667500002
 31
0.0
  0
LINE
  5
324
  8
DATA
  6
CONTINUOUS
 62
     7
 10
96.34197449999999
 20
-866.5351897500002
 30
0.0
 11
87.64988800000003
 21
-866.4377717500001
 31
0.0
  0
LINE
  5
325
  8
DATA
  6
CONTINUOUS
 62
     7
 10
96.34197449999999
 20
-867.1514777500001
 30
0.0
 11
87.64988800000003
 21
-867.9908682500002
 31
0.0
  0
LINE
  5
326
  8
DATA
  6
CONTINUOUS
 62
     7
 10
96.34197449999999
 20
-857.2167812500002
 30
0.0
 11
87.64988800000003
 21
-857.6532332500003
 31
0.0
  0
LINE
  5
327
  8
DATA
  6
CONTINUOUS
 62
     7
 10
96.061553
 20
-861.3510597500001
 30
0.0
 11
96.061553
 21
-863.4691382500002
 31
0.0
  0
LINE
  5
328
  8
DATA
  6
CONTINUOUS
 62
     7
 10
96.061553
 20
-859.3489402500002
 30
0.0
 11
96.061553
 21
-857.23086175
 31
0.0
  0
LINE
  5
329
  8
DATA
  6
CONTINUOUS
 62
     7
 10
96.061553
 20
-864.3518017500003
 30
0.0
 11
96.061553
 21
-866.5320467500003
 31
0.0
  0
LINE
  5
32A
  8
DATA
  6
CONTINUOUS
 62
     7
 10
86.89990799999998
 20
-856.9482197500001
 30
0.0
 11
86.89990799999998
 21
-856.0346982500002
 31
0.0
  0
LINE
  5
32B
  8
DATA
  6
CONTINUOUS
 62
     7
 10
85.89993400000003
 20
-850.8502497500001
 30
0.0
 11
85.89993400000003
 21
-869.84974975
 31
0.0
  0
LINE
  5
32C
  8
DATA
  6
CONTINUOUS
 62
     7
 10
86.89990799999998
 20
-853.6346512500002
 30
0.0
 11
86.89990799999998
 21
-852.9655382500002
 31
0.0
  0
LINE
  5
32D
  8
DATA
  6
CONTINUOUS
 62
     7
 10
86.89990799999998
 20
-863.7517802500001
 30
0.0
 11
86.89990799999998
 21
-864.66530175
 31
0.0
  0
LINE
  5
32E
  8
DATA
  6
CONTINUOUS
 62
     7
 10
86.89990799999998
 20
-867.0653487500001
 30
0.0
 11
86.89990799999998
 21
-867.73446175
 31
0.0
  0
ARC
  5
32F
  8
DATA
  6
CONTINUOUS
 62
     7
 10
96.34197449999999
 20
-856.7960805
 30
0.0
 40
0.4207007500001509
 50
270.0
 51
90.0
  0
ARC
  5
330
  8
DATA
  6
CONTINUOUS
 62
     7
 10
96.34197449999999
 20
-853.8566660000001
 30
0.0
 40
0.3081442499999412
 50
270.0
 51
90.0
  0
ARC
  5
331
  8
DATA
  6
CONTINUOUS
 62
     7
 10
96.34197449999999
 20
-863.9039195000003
 30
0.0
 40
0.4207007499999236
 50
270.0
 51
90.0
  0
ARC
  5
332
  8
DATA
  6
CONTINUOUS
 62
     7
 10
96.34197449999999
 20
-866.8433340000001
 30
0.0
 40
0.3081442499999412
 50
270.0
 51
90.0
  0
LINE
  5
333
  8
DATA
  6
CONTINUOUS
 62
     7
 10
101.0005265
 20
-852.1002169735775
 30
0.0
 11
101.0005265
 21
-868.5997830264228
 31
0.0
  0
LINE
  5
334
  8
DATA
  6
CONTINUOUS
 62
     7
 10
101.0005265
 20
-854.0000000000002
 30
0.0
 11
99.8995655
 21
-854.0000000000002
 31
0.0
  0
LINE
  5
335
  8
DATA
  6
CONTINUOUS
 62
     7
 10
101.0005265
 20
-866.7
 30
0.0
 11
99.8995655
 21
-866.7
 31
0.0
  0
POLYLINE
  5
336
  8
DATA
  6
CONTINUOUS
 62
     7
 66
     1
 10
0.0
 20
0.0
 30
0.0
 70
     1
  0
VERTEX
  5
46D
  8
DATA
  6
CONTINUOUS
 62
     7
 10
3.528167999999937
 20
-857.2326907500003
 30
0.0
  0
VERTEX
  5
46E
  8
DATA
  6
CONTINUOUS
 62
     7
 10
3.528167999999937
 20
-863.4673092500003
 30
0.0
  0
VERTEX
  5
46F
  8
DATA
  6
CONTINUOUS
 62
     7
 10
1.449961499999972
 20
-863.4673092500003
 30
0.0
  0
VERTEX
  5
470
  8
DATA
  6
CONTINUOUS
 62
     7
 10
1.449961499999972
 20
-857.2326907500003
 30
0.0
  0
SEQEND
  5
49A
  8
DATA
  6
CONTINUOUS
 62
     7
  0
LINE
  5
33D
  8
DATA
  6
CONTINUOUS
 62
     7
 10
17.0
 20
-859.3500000000001
 30
0.0
 11
17.0
 21
-861.3500000000001
 31
0.0
  0
CIRCLE
  5
33E
  8
DATA
  6
CONTINUOUS
 62
     7
 10
17.0
 20
-860.3500000000001
 30
0.0
 40
1.75
  0
LINE
  5
33F
  8
DATA
  6
CONTINUOUS
 62
     7
 10
16.0
 20
-860.3500000000001
 30
0.0
 11
18.0
 21
-860.3500000000001
 31
0.0
  0
CIRCLE
  5
340
  8
DATA
  6
CONTINUOUS
 62
     7
 10
-50.0
 20
-860.3500000000001
 30
0.0
 40
9.5
  0
CIRCLE
  5
341
  8
DATA
  6
CONTINUOUS
 62
     7
 10
-53.79999999999995
 20
-860.3500000000001
 30
0.0
 40
1.190000000000055
  0
CIRCLE
  5
342
  8
DATA
  6
CONTINUOUS
 62
     7
 10
-50.0
 20
-856.3500000000001
 30
0.0
 40
1.150000000000091
  0
CIRCLE
  5
343
  8
DATA
  6
CONTINUOUS
 62
     7
 10
-50.0
 20
-864.3500000000001
 30
0.0
 40
1.190000000000055
  0
TEXT
  5
344
  8
DATA
 62
     7
 10
-52.84298746106324
 20
-856.2074763997397
 30
0.0
 40
1.221630859375
  1
1
 50
270.0
 41
0.7
 72
     1
 11
-52.23217203137574
 21
-856.3500000000001
 31
0.0
 73
     2
  0
TEXT
  5
345
  8
DATA
 62
     7
 10
-52.8829874610632
 20
-864.0649527994793
 30
0.0
 40
1.221630859375
  1
2
 50
270.0
 41
0.7
 72
     1
 11
-52.2721720313757
 21
-864.3500000000001
 31
0.0
 73
     2
  0
TEXT
  5
346
  8
DATA
 62
     7
 10
-56.68298746106316
 20
-860.0649527994793
 30
0.0
 40
1.221630859375
  1
3
 50
270.0
 41
0.7
 72
     1
 11
-56.07217203137566
 21
-860.3500000000001
 31
0.0
 73
     2
  0
ARC
  5
347
  8
DATA
  6
CONTINUOUS
 62
     7
 10
-50.00000000000819
 20
-860.349999999992
 30
0.0
 40
7.700000000011627
 50
322.4462495213078
 51
307.553750478696
  0
ARC
  5
348
  8
DATA
  6
CONTINUOUS
 62
     7
 10
-44.55527778486316
 20
-865.7947222151367
 30
0.0
 40
1.00000000000014
 50
221.2768752393323
 51
48.72312476067629
  0
POLYLINE
  5
349
  8
DATA
  6
CONTINUOUS
 62
     7
 66
     1
 10
0.0
 20
0.0
 30
0.0
 70
     1
  0
VERTEX
  5
471
  8
DATA
  6
CONTINUOUS
 62
     7
 10
0.0
 20
-850.8500000000001
 30
0.0
  0
VERTEX
  5
472
  8
DATA
  6
CONTINUOUS
 62
     7
 10
38.09999999999991
 20
-850.8500000000001
 30
0.0
  0
VERTEX
  5
473
  8
DATA
  6
CONTINUOUS
 62
     7
 10
38.09999999999991
 20
-869.8500000000001
 30
0.0
  0
VERTEX
  5
474
  8
DATA
  6
CONTINUOUS
 62
     7
 10
0.0
 20
-869.8500000000001
 30
0.0
  0
SEQEND
  5
49B
  8
DATA
  6
CONTINUOUS
 62
     7
  0
POLYLINE
  5
350
  8
DATA
  6
CONTINUOUS
 62
     7
 66
     1
 10
0.0
 20
0.0
 30
0.0
 70
     1
  0
VERTEX
  5
475
  8
DATA
  6
CONTINUOUS
 62
     7
 10
55.09999999999991
 20
-850.8500000000001
 30
0.0
  0
VERTEX
  5
476
  8
DATA
  6
CONTINUOUS
 62
     7
 10
83.39999999999986
 20
-850.8500000000001
 30
0.0
  0
VERTEX
  5
477
  8
DATA
  6
CONTINUOUS
 62
     7
 10
83.39999999999986
 20
-869.8500000000001
 30
0.0
  0
VERTEX
  5
478
  8
DATA
  6
CONTINUOUS
 62
     7
 10
55.09999999999991
 20
-869.8500000000001
 30
0.0
  0
SEQEND
  5
49C
  8
DATA
  6
CONTINUOUS
 62
     7
  0
ARC
  5
357
  8
DATA
  6
CONTINUOUS
 62
     7
 10
87.61063831087495
 20
-854.3419248157784
 30
0.0
 40
1.63326524684241
 50
88.62296828443527
 51
107.4975715706539
  0
ARC
  5
358
  8
DATA
  6
CONTINUOUS
 62
     7
 10
87.3078781156031
 20
-853.3350212433418
 30
0.0
 40
0.5820900359383767
 50
108.8747215403595
 51
129.535576552725
  0
ARC
  5
359
  8
DATA
  6
CONTINUOUS
 62
     7
 10
87.00291490731479
 20
-852.9655377041624
 30
0.0
 40
0.1030069073162852
 50
129.5360213051181
 51
180.0003036126667
  0
ARC
  5
35A
  8
DATA
  6
CONTINUOUS
 62
     7
 10
98.70038302143894
 20
-867.1932865487031
 30
0.0
 40
1.846291278942276
 50
268.423810036992
 51
296.8217215403827
  0
ARC
  5
35B
  8
DATA
  6
CONTINUOUS
 62
     7
 10
99.1042885762123
 20
-868.0471346819388
 30
0.0
 40
0.9023972977573611
 50
298.3977207868643
 51
322.5427323647654
  0
ARC
  5
35C
  8
DATA
  6
CONTINUOUS
 62
     7
 10
99.6355235426704
 20
-868.4033793837459
 30
0.0
 40
0.2670984293857937
 50
313.8666419611324
 51
41.22486910355633
  0
ARC
  5
35D
  8
DATA
  6
CONTINUOUS
 62
     7
 10
99.03748958362348
 20
-869.2778583321622
 30
0.0
 40
1.319786324526725
 50
52.7463082586096
 51
84.62474391211747
  0
ARC
  5
35E
  8
DATA
  6
CONTINUOUS
 62
     7
 10
98.77813912742488
 20
-850.9841630408998
 30
0.0
 40
1.793333838632557
 50
265.8896909484495
 51
282.3311083664038
  0
ARC
  5
35F
  8
DATA
  6
CONTINUOUS
 62
     7
 10
99.69957099999999
 20
-852.2740697500001
 30
0.0
 40
0.1999945000000025
 50
0.0
 51
45.49699399999372
  0
ARC
  5
360
  8
DATA
  6
CONTINUOUS
 62
     7
 10
98.70038302143894
 20
-853.5067134512972
 30
0.0
 40
1.846291278942422
 50
63.17827845961726
 51
91.57618996300803
  0
ARC
  5
361
  8
DATA
  6
CONTINUOUS
 62
     7
 10
99.1042885762123
 20
-852.6528653180615
 30
0.0
 40
0.9023972977573352
 50
37.45726763523464
 51
61.6022792131357
  0
ARC
  5
362
  8
DATA
  6
CONTINUOUS
 62
     7
 10
99.6355235426704
 20
-852.2966206162544
 30
0.0
 40
0.2670984293857133
 50
318.7751308964437
 51
46.13335803886769
  0
ARC
  5
363
  8
DATA
  6
CONTINUOUS
 62
     7
 10
99.03748958362348
 20
-851.4221416678381
 30
0.0
 40
1.319786324526853
 50
275.3752560878825
 51
307.2536917413904
  0
TEXT
  5
364
  8
DATA
 62
     7
 10
25.89124710648144
 20
-858.0758443754473
 30
0.0
 40
2.714735243055556
  1
DPA
 41
0.7
 72
     1
 11
28.42499999999995
 21
-856.7184767539195
 31
0.0
 73
     2
  0
TEXT
  5
365
  8
DATA
 62
     7
 10
20.04461230468745
 20
-861.5348795572918
 30
0.0
 40
1.900314670138889
  1
PHANTOM POWER
 41
0.7
 72
     1
 11
28.42499999999995
 21
-860.5847222222224
 31
0.0
 73
     2
  0
TEXT
  5
366
  8
DATA
 62
     7
 10
21.59653595196755
 20
-864.0043240017362
 30
0.0
 40
1.900314670138889
  1
ADAPTER FOR
 41
0.7
 72
     1
 11
28.42499999999995
 21
-863.0541666666668
 31
0.0
 73
     2
  0
TEXT
  5
367
  8
DATA
 62
     7
 10
20.57670041232634
 20
-866.4737684461807
 30
0.0
 40
1.900314670138889
  1
9 TO 52 VOLTS
 41
0.7
 72
     1
 11
28.42499999999995
 21
-865.5236111111112
 31
0.0
 73
     2
  0
LINE
  5
368
  8
DATA
  6
CONTINUOUS
 62
     7
 10
237.7722547155346
 20
-862.0000000000002
 30
0.0
 11
121.0
 21
-862.0000000000002
 31
0.0
  0
ARC
  5
369
  8
DATA
  6
CONTINUOUS
 62
     7
 10
247.7697362906219
 20
-873.1691926722551
 30
0.0
 40
14.99001343542321
 50
121.2201306816676
 51
234.3502330358235
  0
ARC
  5
36A
  8
DATA
  6
CONTINUOUS
 62
     7
 10
232.2302637093826
 20
-847.5308073277452
 30
0.0
 40
14.99001343542321
 50
301.2201306816676
 51
54.35023303582386
  0
ARC
  5
36B
  8
DATA
  6
CONTINUOUS
 62
     7
 10
257.7697362906219
 20
-873.1691926722551
 30
0.0
 40
14.99001343542321
 50
121.2201306816676
 51
234.3502330358235
  0
ARC
  5
36C
  8
DATA
  6
CONTINUOUS
 62
     7
 10
242.2302637093826
 20
-847.5308073277452
 30
0.0
 40
14.99001343542321
 50
301.2201306816676
 51
54.35023303582386
  0
LINE
  5
36D
  8
DATA
  6
CONTINUOUS
 62
     7
 10
488.25
 20
-858.7
 30
0.0
 11
252.2277452844702
 21
-858.7
 31
0.0
  0
LINE
  5
36E
  8
DATA
  6
CONTINUOUS
 62
     7
 10
488.25
 20
-862.0
 30
0.0
 11
247.7722547155347
 21
-862.0
 31
0.0
  0
LINE
  5
36F
  8
DATA
  6
CONTINUOUS
 62
     7
 10
493.4547727312186
 20
801.6499999999999
 30
0.0
 11
302.2277452844677
 21
801.6499999999999
 31
0.0
  0
LINE
  5
370
  8
DATA
  6
CONTINUOUS
 62
     7
 10
493.4547727312186
 20
798.3499999999999
 30
0.0
 11
297.7722547155322
 21
798.3499999999999
 31
0.0
  0
ARC
  5
371
  8
DATA
  6
CONTINUOUS
 62
     7
 10
307.7697362906197
 20
787.180807327745
 30
0.0
 40
14.99001343542301
 50
121.2201306816681
 51
234.350233035824
  0
ARC
  5
372
  8
DATA
  6
CONTINUOUS
 62
     7
 10
292.2302637093803
 20
812.819192672255
 30
0.0
 40
14.9900134354234
 50
301.2201306816672
 51
54.35023303582298
  0
ARC
  5
373
  8
DATA
  6
CONTINUOUS
 62
     7
 10
495.3333333333334
 20
519.0
 30
0.0
 40
0.4166666666667561
 50
286.2602047083095
 51
73.73979529169054
  0
ARC
  5
374
  8
DATA
  6
CONTINUOUS
 62
     7
 10
495.3333333333334
 20
514.5
 30
0.0
 40
0.4166666666667561
 50
286.2602047083095
 51
73.73979529169054
  0
ARC
  5
375
  8
DATA
  6
CONTINUOUS
 62
     7
 10
504.6666666666666
 20
519.0
 30
0.0
 40
0.4166666666667561
 50
106.2602047083095
 51
253.7397952916905
  0
ARC
  5
376
  8
DATA
  6
CONTINUOUS
 62
     7
 10
504.6666666666666
 20
514.5
 30
0.0
 40
0.4166666666667561
 50
106.2602047083095
 51
253.7397952916905
  0
LINE
  5
377
  8
DATA
  6
CONTINUOUS
 62
     7
 10
496.0
 20
523.0
 30
0.0
 11
496.0
 21
580.5
 31
0.0
  0
LINE
  5
378
  8
DATA
  6
CONTINUOUS
 62
     7
 10
504.0
 20
523.8000000000001
 30
0.0
 11
496.0
 21
523.0
 31
0.0
  0
LINE
  5
379
  8
DATA
  6
CONTINUOUS
 62
     7
 10
504.0
 20
580.5
 30
0.0
 11
504.0
 21
523.0
 31
0.0
  0
LINE
  5
37A
  8
DATA
  6
CONTINUOUS
 62
     7
 10
504.0
 20
526.8000000000001
 30
0.0
 11
496.0
 21
526.0
 31
0.0
  0
LINE
  5
37B
  8
DATA
  6
CONTINUOUS
 62
     7
 10
504.0
 20
529.8000000000001
 30
0.0
 11
496.0
 21
529.0
 31
0.0
  0
LINE
  5
37C
  8
DATA
  6
CONTINUOUS
 62
     7
 10
504.0
 20
532.8000000000001
 30
0.0
 11
496.0
 21
532.0
 31
0.0
  0
LINE
  5
37D
  8
DATA
  6
CONTINUOUS
 62
     7
 10
504.0
 20
535.8
 30
0.0
 11
496.0
 21
535.0
 31
0.0
  0
LINE
  5
37E
  8
DATA
  6
CONTINUOUS
 62
     7
 10
504.0
 20
538.8
 30
0.0
 11
496.0
 21
538.0
 31
0.0
  0
LINE
  5
37F
  8
DATA
  6
CONTINUOUS
 62
     7
 10
504.0
 20
541.8
 30
0.0
 11
496.0
 21
541.0
 31
0.0
  0
LINE
  5
380
  8
DATA
  6
CONTINUOUS
 62
     7
 10
504.0
 20
544.8
 30
0.0
 11
496.0
 21
544.0
 31
0.0
  0
LINE
  5
381
  8
DATA
  6
CONTINUOUS
 62
     7
 10
504.0
 20
547.8
 30
0.0
 11
496.0
 21
547.0
 31
0.0
  0
LINE
  5
382
  8
DATA
  6
CONTINUOUS
 62
     7
 10
504.0
 20
550.8
 30
0.0
 11
496.0
 21
550.0
 31
0.0
  0
LINE
  5
383
  8
DATA
  6
CONTINUOUS
 62
     7
 10
504.0
 20
553.8
 30
0.0
 11
496.0
 21
553.0
 31
0.0
  0
LINE
  5
384
  8
DATA
  6
CONTINUOUS
 62
     7
 10
504.0
 20
556.8
 30
0.0
 11
496.0
 21
556.0
 31
0.0
  0
LINE
  5
385
  8
DATA
  6
CONTINUOUS
 62
     7
 10
504.0
 20
559.8
 30
0.0
 11
496.0
 21
559.0
 31
0.0
  0
LINE
  5
386
  8
DATA
  6
CONTINUOUS
 62
     7
 10
504.0
 20
562.8
 30
0.0
 11
496.0
 21
562.0
 31
0.0
  0
LINE
  5
387
  8
DATA
  6
CONTINUOUS
 62
     7
 10
504.0
 20
565.8
 30
0.0
 11
496.0
 21
565.0
 31
0.0
  0
LINE
  5
388
  8
DATA
  6
CONTINUOUS
 62
     7
 10
504.0
 20
568.8
 30
0.0
 11
496.0
 21
568.0
 31
0.0
  0
LINE
  5
389
  8
DATA
  6
CONTINUOUS
 62
     7
 10
504.0
 20
571.8
 30
0.0
 11
496.0
 21
571.0
 31
0.0
  0
LINE
  5
38A
  8
DATA
  6
CONTINUOUS
 62
     7
 10
504.0
 20
574.8
 30
0.0
 11
496.0
 21
574.0
 31
0.0
  0
LINE
  5
38B
  8
DATA
  6
CONTINUOUS
 62
     7
 10
504.0
 20
577.8
 30
0.0
 11
496.0
 21
577.0
 31
0.0
  0
LINE
  5
38C
  8
DATA
  6
CONTINUOUS
 62
     7
 10
501.0000000000003
 20
580.5
 30
0.0
 11
496.0
 21
580.0
 31
0.0
  0
POLYLINE
  5
38D
  8
DATA
  6
CONTINUOUS
 62
     7
 66
     1
 10
0.0
 20
0.0
 30
0.0
 70
     1
  0
VERTEX
  5
479
  8
DATA
  6
CONTINUOUS
 62
     7
 10
495.25
 20
584.6
 30
0.0
  0
VERTEX
  5
47A
  8
DATA
  6
CONTINUOUS
 62
     7
 10
504.75
 20
584.6
 30
0.0
  0
VERTEX
  5
47B
  8
DATA
  6
CONTINUOUS
 62
     7
 10
504.75
 20
580.5
 30
0.0
  0
VERTEX
  5
47C
  8
DATA
  6
CONTINUOUS
 62
     7
 10
495.25
 20
580.5
 30
0.0
  0
SEQEND
  5
49D
  8
DATA
  6
CONTINUOUS
 62
     7
  0
POLYLINE
  5
394
  8
DATA
  6
CONTINUOUS
 62
     7
 66
     1
 10
0.0
 20
0.0
 30
0.0
 70
     1
  0
VERTEX
  5
47D
  8
DATA
  6
CONTINUOUS
 62
     7
 10
495.25
 20
588.1
 30
0.0
  0
VERTEX
  5
47E
  8
DATA
  6
CONTINUOUS
 62
     7
 10
504.75
 20
588.1
 30
0.0
  0
VERTEX
  5
47F
  8
DATA
  6
CONTINUOUS
 62
     7
 10
504.75
 20
585.4000000000001
 30
0.0
  0
VERTEX
  5
480
  8
DATA
  6
CONTINUOUS
 62
     7
 10
495.25
 20
585.4000000000001
 30
0.0
  0
SEQEND
  5
49E
  8
DATA
  6
CONTINUOUS
 62
     7
  0
LINE
  5
39B
  8
DATA
  6
CONTINUOUS
 62
     7
 10
488.25
 20
-862.0
 30
0.0
 11
511.75
 21
-862.0
 31
0.0
  0
LINE
  5
39C
  8
DATA
  6
CONTINUOUS
 62
     7
 10
-700.0
 20
-1400.0
 30
0.0
 11
-300.0
 21
-1400.0
 31
0.0
  0
LINE
  5
39D
  8
DATA
  6
CONTINUOUS
 62
     7
 10
300.0
 20
-1400.0
 30
0.0
 11
700.0
 21
-1400.0
 31
0.0
  0
TEXT
  5
39E
  8
DATA
 62
     7
 10
-614.0188802083335
 20
-1370.360514322917
 30
0.0
 40
40.72102864583337
  1
延長ポール無し
 41
0.7
 72
     1
 11
-500.0
 21
-1350.0
 31
0.0
 73
     2
  0
TEXT
  5
39F
  8
DATA
 62
     7
 10
386.9312771267361
 20
-1371.81884765625
 30
0.0
 40
40.72102864583337
  1
延長ポールあり
 41
0.7
 72
     1
 11
500.0000000000001
 21
-1351.458333333333
 31
0.0
 73
     2
  0
ENDSEC
  0
EOF
